Search tabs and chords

Search for song, artist or band

Log in

One click and you are in

Login with Facebook Login with Google

Why sign up and log in

Guitar Tabs Explorer
Rammstein guitar tabs for Liebe ist fuer alle da

Guitar tabs with lyrics

Band: Rammstein
Song name: Liebe ist für alle da
Tuning: CGCFAD
**Drum Intro**


  D|-----------------|
  A|-----------------|
  F| chord diagramF|F|-----------------|
  C| chord diagramC|C|-----------------|
  G|-------/11~------|
  C| chord diagramC|C|--6-5------------|


Guitar 1                                        -
  D|------------------------------------|        |
  A|------------------------------------|        |
  F| chord diagramF|F|------------------------------------|--|     |
  C| chord diagramC|C|--2-2-2-2--2-2-2--2-2-2--2-2/3------|  |     |
  G|--2-2-2-2--2-2-2--2-2-2--2-2/3------|  |     |
  C| chord diagramC|C|--2-2-2-2--2-2-2--2-2-2--2-2/3------|  |     |
pm    . . .    . .    . .    .             |     |
                                           |--x3 |
                                           |     |
Guitar2                                    |     |
  D|------------------------------------|  |     |
  A|------------------------------------|  |     |
  F| chord diagramF|F|--9-9-9-9--9-9-9--9-9-9--9-9/10-----|--      |
  C| chord diagramC|C|--9-9-9-9--9-9-9--9-9-9--9-x-x------|        |
  G|--7-7-7-7--7-7-7--7-7-7--7-7/8------|        |
  C| chord diagramC|C|------------------------------------|        |
pm    . . .    . .    . .    .                   |--x2
                                                 |
Guitar 1                                         |
  D|------------------------------------|        |
  A|------------------------------------|        |
  F| chord diagramF|F|------------------------------------|--|     |
  C| chord diagramC|C|--2-2-2-2--2-2-2--2-2-2--2-2/3-3----|  |     |
  G|--2-2-2-2--2-2-2--2-2-2--2-2/3-3----|  |     |
  C| chord diagramC|C|--2-2-2-2--2-2-2--2-2-2--2-2/3-3----|  |     |
pm    . . .    . .    . .    .             |     |
                                           |--x1 |
                                           |     |
Guitar 2                                   |     |
  D|-------------------------------------| |     |
  A|-------------------------------------| |     |
  F| chord diagramF|F|--9-9-9-9--9-9-9--9-9-9--9-9/10-10---|-|     |
  C| chord diagramC|C|--9-9-9-9--9-9-9--9-9-9--9-x-x--x----|       |
  G|--7-7-7-7--7-7-7--7-7-7--7-7/8--8----|       |
  C| chord diagramC|C|-------------------------------------|       |
pm    . . .    . .    . .    .                   |
                                                -

Guitar 1
  D|------------------------------------|
  A|------------------------------------|
  F| chord diagramF|F|------------------------------------|
  C| chord diagramC|C|------------------------------------|-|
  G|--6-6-6-6-6--6-6-6-6-6--------------| |
  C| chord diagramC|C|--6-6-6-6-6--6-6-6-6-6--------------| |
pm    . . . . .  . . . . .                |
                                          |-x8
Guitar2                                   |
  D|------------------------------------| |
  A|------------------------------------| |
  F| chord diagramF|F|------------------------------------|-|
  C| chord diagramC|C|------------------------------------|
  G|--6-6-6-6-6--6-6-6-6-6----11/-------|
  C| chord diagramC|C|--6-6-6-6-6--6-6-6-6-6--------------|
pm    . . . . .  . . . . .

Guitar 1
  D|------------------------------------|
  A|------------------------------------|
  F| chord diagramF|F|------------------------------------|--|
  C| chord diagramC|C|--2-2-2-2--2-2-2--2-2-2--2-2/3------|  |
  G|--2-2-2-2--2-2-2--2-2-2--2-2/3------|  |
  C| chord diagramC|C|--2-2-2-2--2-2-2--2-2-2--2-2/3------|  |
pm    . . .    . .    . .    .             |
                                           |--x3
                                           |
Guitar 2                                   |
  D|------------------------------------|  |
  A|------------------------------------|  |
  F| chord diagramF|F|--9-9-9-9--9-9-9--9-9-9--9-9/10-----|--
  C| chord diagramC|C|--9-9-9-9--9-9-9--9-9-9--9-x-x------|
  G|--7-7-7-7--7-7-7--7-7-7--7-7/8------|
  C| chord diagramC|C|------------------------------------|
pm    . . .    . .    . .    .



Guitar 1
  D|------------------------------------|
  A|------------------------------------|
  F| chord diagramF|F|------------------------------------|--|
  C| chord diagramC|C|--2-2-2-2--2-2-2--2-2-2--2-2/3-3----|  |
  G|--2-2-2-2--2-2-2--2-2-2--2-2/3-3----|  |
  C| chord diagramC|C|--2-2-2-2--2-2-2--2-2-2--2-2/3-3----|  |
pm    . . .    . .    . .    .             |
                                           |--x1
                                           |
Guitar 2                                   |
  D|-------------------------------------| |
  A|-------------------------------------| |
  F| chord diagramF|F|--9-9-9-9--9-9-9--9-9-9--9-9/10-10---|-|
  C| chord diagramC|C|--9-9-9-9--9-9-9--9-9-9--9-x-x--x----|
  G|--7-7-7-7--7-7-7--7-7-7--7-7/8--8----|
  C| chord diagramC|C|-------------------------------------|



Chorus guitar 1 & 2
  D|--------------------------------|
  A|--------------------------------|-
  F| chord diagramF|F|--6---6-------------------------| |_x1
  C| chord diagramC|C|--6---6---5---2-----------------| |
  G|--4---4---5---2-----------------|-
  C| chord diagramC|C|----------5---2-----------------|

  D|--------------------------------|
  A|--------------------------------|-
  F| chord diagramF|F|--6-6-6-6--6-6-6--6-6-6--6-6/7--| |_x2
  C| chord diagramC|C|--6-6-6-6--6-6-6--6-6-6--6-6/7--| |
  G|--4-4-4-4--4-4-4--4-4-4--4-4/5--|-
  C| chord diagramC|C|--------------------------------|
pm    . . .    . .    . .    .

  D|--------------------------------|
  A|--------------------------------|-
  F| chord diagramF|F|--------------------------------| |_x1
  C| chord diagramC|C|--5-5-5-5--5-5-5--5-5-5/6---2~--| |
  G|--5-5-5-5--5-5-5--5-5-5/6---2~--|-
  C| chord diagramC|C|--5-5-5-5--5-5-5--5-5-5/6---2~--|
pm    . . .    . .    . .



**Drum**



Guitar 1 & 2
  D|------------------------------------|
  A|------------------------------------|-
  F| chord diagramF|F|------------------------------------| |_ x4
  C| chord diagramC|C|------------------------------------| |
  G|--6-6-6-6-6--6-6-6-6-6--------------|-
  C| chord diagramC|C|--6-6-6-6-6--6-6-6-6-6--------------|
pm    . . . . .  . . . . .



Guitar 1
  D|------------------------------------|
  A|------------------------------------|
  F| chord diagramF|F|------------------------------------|
  C| chord diagramC|C|------------------------------------|-|
  G|--6-6-6-6-6--6-6-6-6-6--------------| |
  C| chord diagramC|C|--6-6-6-6-6--6-6-6-6-6--------------| |
pm    . . . . .  . . . . .                |
                                          |-x1
Guitar2	                                  |
  D|------------------------------------| |
  A|------------------------------------| |
  F| chord diagramF|F|------------------------------------|-|
  C| chord diagramC|C|------------------------------------|
  G|--6-6-6-6-6--6-6-6-6-6------/11~----|
  C| chord diagramC|C|--6-6-6-6-6--6-6-6-6-6--6-5---------|
pm    . . . . .  . . . . .


Guitar 1 & 2
  D|------------------------------------|
  A|------------------------------------|-
  F| chord diagramF|F|------------------------------------| |_ x1
  C| chord diagramC|C|------------------------------------| |
  G|--6-6-6-6-6--6-6-6-6-6--------------|-
  C| chord diagramC|C|--6-6-6-6-6--6-6-6-6-6--------------|
pm    . . . . .  . . . . .


Guitar 1
  D|------------------------------------|
  A|------------------------------------|
  F| chord diagramF|F|------------------------------------|
  C| chord diagramC|C|------------------------------------|-|
  G|--6-6-6-6-6--6-6-6-6-6--------------| |
  C| chord diagramC|C|--6-6-6-6-6--6-6-6-6-6--------------| |
pm    . . . . .  . . . . .                |
                                          |-x1
Guitar2	                                  |
  D|------------------------------------| |
  A|------------------------------------| |
  F| chord diagramF|F|------------------------------------|-|
  C| chord diagramC|C|------------------------------------|
  G|--6-6-6-6-6--6-6-6-6-6------/11~----|
  C| chord diagramC|C|--6-6-6-6-6--6-6-6-6-6--6-5---------|
pm    . . . . .  . . . . .


Guitar 1 & 2
  D|------------------------------------|
  A|------------------------------------|-
  F| chord diagramF|F|------------------------------------| |_ x1
  C| chord diagramC|C|------------------------------------| |
  G|--6-6-6-6-6--6-6-6-6-6--------------|-
  C| chord diagramC|C|--6-6-6-6-6--6-6-6-6-6--------------|
pm    . . . . .  . . . . .



Guitar 1
  D|------------------------------------|
  A|------------------------------------|
  F| chord diagramF|F|------------------------------------|--|
  C| chord diagramC|C|--2-2-2-2--2-2-2--2-2-2--2-2/3------|  |
  G|--2-2-2-2--2-2-2--2-2-2--2-2/3------|  |
  C| chord diagramC|C|--2-2-2-2--2-2-2--2-2-2--2-2/3------|  |
pm    . . .    . .    . .    .             |
                                           |--x3
                                           |
Guitar 2                                   |
  D|------------------------------------|  |
  A|------------------------------------|  |
  F| chord diagramF|F|--9-9-9-9--9-9-9--9-9-9--9-9/10-----|--|
  C| chord diagramC|C|--9-9-9-9--9-9-9--9-9-9--9-x-x------|
  G|--7-7-7-7--7-7-7--7-7-7--7-7/8------|
  C| chord diagramC|C|------------------------------------|
pm    . . .    . .    . .    .

Guitar 1
  D|------------------------------------|
  A|------------------------------------|
  F| chord diagramF|F|------------------------------------|--|
  C| chord diagramC|C|--2-2-2-2--2-2-2--2-2-2--2-2/3-3----|  |
  G|--2-2-2-2--2-2-2--2-2-2--2-2/3-3----|  |
  C| chord diagramC|C|--2-2-2-2--2-2-2--2-2-2--2-2/3-3----|  |
pm    . . .    . .    . .    .             |
                                           |--x1
                                           |
Guitar 2                                   |
  D|-------------------------------------| |
  A|-------------------------------------| |
  F| chord diagramF|F|--9-9-9-9--9-9-9--9-9-9--9-9/10-10---|-|
  C| chord diagramC|C|--9-9-9-9--9-9-9--9-9-9--9-x-x--x----|
  G|--7-7-7-7--7-7-7--7-7-7--7-7/8--8----|
  C| chord diagramC|C|-------------------------------------|
pm    . . .    . .    . .    .



Chorus guitar 1 & 2
  D|--------------------------------|
  A|--------------------------------|-
  F| chord diagramF|F|--6---6-------------------------| |_x1
  C| chord diagramC|C|--6---6---5---2-----------------| |
  G|--4---4---5---2-----------------|-
  C| chord diagramC|C|----------5---2-----------------|

  D|--------------------------------|
  A|--------------------------------|-
  F| chord diagramF|F|--6-6-6-6--6-6-6--6-6-6--6-6/7--| |_x2
  C| chord diagramC|C|--6-6-6-6--6-6-6--6-6-6--6-6/7--| |
  G|--4-4-4-4--4-4-4--4-4-4--4-4/5--|-
  C| chord diagramC|C|--------------------------------|
pm    . . .    . .    . .    .

  D|--------------------------------|
  A|--------------------------------|-
  F| chord diagramF|F|--------------------------------| |_x1
  C| chord diagramC|C|--5-5-5-5--5-5-5--5-5-5/6---2~--| |
  G|--5-5-5-5--5-5-5--5-5-5/6---2~--|-
  C| chord diagramC|C|--5-5-5-5--5-5-5--5-5-5/6---2~--|
pm    . . .    . .    . .



Bridge (use the same riff on the solo)
Guitar 1 & 2
  D|--------------------------------|
  A|--------------------------------|-
  F| chord diagramF|F|---------9-9----9/10------------| |_x16
  C| chord diagramC|C|---------9-9----9/10------------| |
  G|--7-7-7--7-7--7-7/8-------------|-
  C| chord diagramC|C|--------------------------------|
pm    . . .       .


*Solo* (i´m not sure) *Tapping* & Pitch Pedal

      T      T      T      T      T      T      T      T
  D|------------------------------------------------------------|
  A|--11p7h9-11p7h9-11p7h9-11p7h9-11p7h9-11p7h9-11p7h9-11p7h9---|-
  F| chord diagramF|F|------------------------------------------------------------| |_ x 4
  C| chord diagramC|C|------------------------------------------------------------| |
  G|------------------------------------------------------------|-
  C| chord diagramC|C|------------------------------------------------------------|



Chorus guitar 1 & 2
  D|--------------------------------|
  A|--------------------------------|-
  F| chord diagramF|F|--6---6-------------------------| |_x2
  C| chord diagramC|C|--6---6---5---2~----------------| |
  G|--4---4---5---2~----------------|-
  C| chord diagramC|C|----------5---2~----------------|



Guitar 1
  D|------------------------------------|
  A|------------------------------------|
  F| chord diagramF|F|------------------------------------|--|
  C| chord diagramC|C|--2-2-2-2--2-2-2--2-2-2--2-2/3------|  |
  G|--2-2-2-2--2-2-2--2-2-2--2-2/3------|  |
  C| chord diagramC|C|--2-2-2-2--2-2-2--2-2-2--2-2/3------|  |
pm    . . .    . .    . .    .	            |
                                           |--x3
                                           |
Guitar 2                                   |
  D|------------------------------------|  |
  A|------------------------------------|  |
  F| chord diagramF|F|--9-9-9-9--9-9-9--9-9-9--9-9/10-----|--|
  C| chord diagramC|C|--9-9-9-9--9-9-9--9-9-9--9-x-x------|
  G|--7-7-7-7--7-7-7--7-7-7--7-7/8------|
  C| chord diagramC|C|------------------------------------|
pm    . . .    . .    . .    .

Guitar 1
  D|------------------------------------|
  A|------------------------------------|
  F| chord diagramF|F|------------------------------------|--|
  C| chord diagramC|C|--2-2-2-2--2-2/3--------------------|  |
  G|--2-2-2-2--2-2/3--------------------|  |
  C| chord diagramC|C|--2-2-2-2--2-2/3--------------------|  |
pm    . . .    .                           |
                                           |--x1
                                           |
Guitar 2                                   |
  D|-------------------------------------| |
  A|-------------------------------------| |
  F| chord diagramF|F|--9-9-9-9--9-9/10--------------------|-|
  C| chord diagramC|C|--9-9-9-9--9-9-x---------------------|
  G|--7-7-7-7--7-7/8---------------------|
  C| chord diagramC|C|-------------------------------------|
pm    . . .    .


By Luis Sánchez --R+--

Almost there ...

Sign in to get your own page with links to favourite songs and more. You are just one click away...

Login with Facebook Login with Google