Search tabs and chords

Search for song, artist or band

Log in

One click and you are in

Login with Facebook Login with Google

Why sign up and log in

Guitar Tabs Explorer
Rammstein bass tabs for Keine lust (Ver. 2)

Bass tabs

-------------------------------------------------------------------------------
                          Keine Lust - Rammstein
-------------------------------------------------------------------------------
Tabbed by: WalterBrow
E-mail: walterbrowbass@gmail.com
Re-submitted by: Ingo, because these tabs are GREAT!

Video - Bass Cover Included

Tuning: C-G-C-F

INTRO
       T   T      T
F|---------------------------------------------------------------------------| 2x
C|-12--15---------15/17\15---------------------------------------------------|
G|---------15h17-------------------------------------------------------------|
C|-0~~~~~~~~~~~~~~~~~~~~~~---------------------------------------------------|

VERSES
1º variation
F|---------------------------------------------------------------------------|
C|---------------------------------------------------------------------------|
G|----------------------------------------------------------------------6-3--|
C|-0-0-0-0-0-0-0-0--0-0-0-0-0-0-0-0-0--0-0-0-0-0-0-0-0-0--0-0-0-0-0-0-0------|

2º variation
F|---------------------------------------------------------------------------|
C|---------------------------------------------------------------------------|
G|---------------------------------------------------------------------------|
C|-0-0-0-0-0-0-0--0-0-0-0-0-0-0--0-0-0-0-0-0-0--0-0-0-0-0-0-0----------------|

CHORUS
F|---------------------------------------------------------------------------|
C|---------------------------------------------------------------------------|
G|---------------------------------------------------------------------------|
C|-0-0-0-0-7-7-7-7-5-5-5-5-8-8-8-8-------------------------------------------|

BRIDGE
F|---------------------------------------------------------------------------|
C|---------------------------------------------------------------------------|
G|---------------------------------------------------------------------------|
C|-0~-0~-7~-5~-8~------------------------------------------------------------|




| T  Tap
| /  slide up
| \  slide down
| h  hammer-on
| ~  let ring

Other versions of Keine Lust

Keine lustBass tabs

Almost there ...

Sign in to get your own page with links to favourite songs and more. You are just one click away...

Login with Facebook Login with Google