Log in

One click and you are in

Login with Facebook Login with Google

Why sign up and log in

Guitar Tabs Explorer
Rammstein guitar tabs for Ich will

Guitar tabs

 
Album: Mutter
 
Tabbed by Kristof Smits
 
Drop A chord diagramD MajorD Tuning
 

Main Riff:
                            (x3)
e-------------------------------
B-------------------------------
G-------------------------------
D--0-0-0-0-0--0-0-0-0-0-0-0-0---
A--5-5-5-5-5--5-5-5-5-5-5-5-5---
D--0-0-0-0-0--0-0-0-0-0-0-0-0---
 
  e-------------------------------
B-------------------------------
G-------------------------------
D--0-0-0-0-0--5-5-5-3-3-3-0-0---
A--5-5-5-5-5--5-5-5-3-3-3-5-5---
D--0-0-0-0-0--5-5-5-3-3-3-0-0---
 

Verse 1:
Bass, Synth & Drum
 

Verse 2:
e--------------
B--------------
G--------------
D--0-0-0-0-0---
A--5-5-5-5-5---
D--0-0-0-0-0---
 

Chorus:
e------------------------------------
B------------------------------------
G------------------------------------
D--0-0-0-0-0-0-0-0-8-8-8-5-5-5-7-7---
A--5-5-5-5-5-5-5-5-8-8-8-5-5-5-7-7---
D--0-0-0-0-0-0-0-0-8-8-8-5-5-5-7-7---
 
e---------------------------------------
B---------------------------------------
G---------------------------------------
D--0-0-0-0-0-0-0-0-8-8-8-10-10-10-7-7---
A--5-5-5-5-5-5-5-5-8-8-8-10-10-10-7-7---
D--0-0-0-0-0-0-0-0-8-8-8-10-10-10-7-7---
 
Interlude (clean):
e--------------------------------------------------------------------
B--------------------------------------------------------------------
G--------------------------------------------------------------------
D------0-------0-------0-------0-------8-------8-------8-------------
A----0---0---0---0---0---0---0---0---8---8---8---8---8---8---8---7---
D--0-------0-------0-------0-------8-------8-------8-------8---8-----
 
(continued)
e--------------------------------------------------------------------
B--------------------------------------------------------------------
G--------------------------------------------------------------------
D------5-------5-------5-------5-------7-------7-------7-------7-----
A----5---5---5---5---5---5---5---5---7---7---7---7---7---7---7---7---
D--5-------5-------5-------5-------7-------7-------7-------7---------
 

Outro:
                            (x2)
e-------------------------------
B-------------------------------
G-------------------------------
D--0-0-0-0-0--0-0-0-0-0-0-0-0---
A--5-5-5-5-5--5-5-5-5-5-5-5-5---
D--0-0-0-0-0--0-0-0-0-0-0-0-0---
 
Song structure:

Main Riff        (00:11)

Verse 1          (00:27)

Main Riff        (00:56)

Verse 2          (01:11)

Chorus x4        (01:41)

Main Riff        (02:11)
Interlude x2     (02:26)

Chorus x4        (02:58)

Outro            (03:28)
 

Almost there ...

Sign in to get your own page with links to favourite songs and more. You are just one click away...

Login with Facebook Login with Google