Guitar Tabs Explorer
Rammstein guitar tabs for Herzeleid

Herzeleid tab


Be the first to rate

Herzeleid tab by Rammstein

Guitar tabs

Print
Easy song easy to play
great band ¡¡VIVA MEXICO CABRONES!!!


drop D chord diagramDD tuning


   Riff 1 	               Riff 2
 e-----------------------     ----------------------
 b-----------------------     ----------------------
 g-----------------------     ----------------------
 d------------5--(5)--4-- x16 -2--4-4--5----4------- x4
 a------------5--(5)--4--     -2--4-4--5----4-------
 D chord diagramDD-4--4-4--4--5--(5)--4--     -2--4-4--5----4--2-2--
   pm.......                                  pm..




   Bridge 1
 e-------------------------   ------------------------
 b-------------------------   ------------------------
 g-------------------------   ------------------------
 d------------10--(10)--8-- x2------------8--(8)--7--- x2
 a------------10--(10)--8--   ------------8--(8)--7---
 D chord diagramDD-8--8-8--8--10--(10)--8--   -7--7-7--7--8--(8)--7---
   pm.......                  pm.......


 e--------------------------------
 b--------------------------------
 g---h-------h----h----h----------
 d-7-8-----7-8--7-8--7-8---------- x2
 a-7-8-----7-8--7-8--7-8----------
 D chord diagramDD-7-8-8-8-7-8--7-8--7-8-8-8-8-8--
       pm.               pm.....

 e--------------------------------
 b--------------------------------
 g---h-------h----h----h----------
 d-5-7-----5-7--5-7--5-7---------- x2
 a-5-7-----5-7--5-7--5-7----------
 D chord diagramDD-5-7-7-7-5-7--5-7--5-7-7-7-7-7--
       pm.               pm.....


 e------------------------------------
 b------------------------------------
 g---h-------h----h----h--------------
 d-7-8-----7-8--7-8--7-8----------14--
 a-7-8-----7-8--7-8--7-8----------14--
 D chord diagramDD-7-8-8-8-7-8--7-8--7-8-8-8-8-8--14--
       pm.               pm.....




   Bridge 2 (solo)
 e--------  -----------------------
 b--------  -----------------------
 g--------  -----------------------
 d-9------  ------------10--10--9--  + Riff 1  x2
 a-9------  ------------10--10--9--
 e-9------  -9--9-9--9--10--10--9--
             pm......

Comment this song and these guitar tabs

Do you have corrections, comments on the guitar tabs, thoughts about the song or a message to the author? Write them below.