Search tabs and chords

Search for song, artist or band

Log in

One click and you are in

Login with Facebook Login with Google

Why sign up and log in

Guitar Tabs Explorer
Rammstein bass tabs for Feuer und wasser

Bass tabs

Artist - Rammstein
Song - Feuer und Wasser
Album - Rosenrot
Tabbed by - Cat Mist. (naturalium@online.fr)
2:06 - Start
(Sie schwimmt vorbei...)

G|-----------------|-----------------|-----------------|-----------------|
D|-----------------|-----------------|-----------------|-----------------|
A|-0-0-0-0-0-0-0-0-|-----------------|-4-4-4-4-4-4-4-4-|-2-2-2-2-2-2-2-2-|
E|-----------------|-2-2-2-2-4-4-4-4-|-----------------|-----------------|
x 1

G|-----------------|-----------------|
D|-----------------|-----------------|
A|-0-0-0-0-0-0-0-0-|-----------------|
E|-----------------|-2-2-2-2-4-4-4-4-|
x 1


2:24 - Ref
(Feuer und Wasser...)

G|-----------------|-----------------|-----------------|-----------------|
D|-----------------|-----------------|-----------------|-----------------|
A|-0-0-0-0-0-0-0-0-|-----------------|-4-4-4-4-4-4-4-4-|-2-2-2-2-2-2-2-2-|
E|-----------------|-2-2-2-2-4-4-4-4-|-----------------|-----------------|
x 2

G|-----------------|-----------------|
D|-----------------|-----------------|
A|-0-0-0-0-0-0-0-0-|-----------------|
E|-----------------|-2-2-2-2-4-4-4-4-|
x 1

G|-----------------|-----------------|
D|-----------------|-----------------|
A|-0-0-0-0-0-0-0-0-|-----------------|
E|-----------------|-0-0-0-0-0-0-0-0-| (So kocht das Blut in meinen Händen...)
x 1

G|-----------------|-----------------|-----------------|-----------------|
D|-----------------|-----------------|-----------------|-----------------|
A|-----------------|-----------------|-----------------|-----------------|
E|-0---------------|-0---------------|-0---------------|-0---------------|
x 1

03:04 - Pause


03:24 - Guitar Solo

G|-----------------|-----------------|-----------------|-----------------|
D|-----------------|-----------------|-----------------|-----------------|
A|-0-0-0-0-0-0-0-0-|-----------------|-4-4-4-4-4-4-4-4-|-2-2-2-2-2-2-2-2-|
E|-----------------|-2-2-2-2-4-4-4-4-|-----------------|-----------------|
x 2


03:48 - Ref
(Feuer und Wasser...)

G|-----------------|-----------------|-----------------|-----------------|
D|-----------------|-----------------|-----------------|-----------------|
A|-0-0-0-0-0-0-0-0-|-----------------|-4-4-4-4-4-4-4-4-|-2-2-2-2-2-2-2-2-|
E|-----------------|-2-2-2-2-4-4-4-4-|-----------------|-----------------|
x 2

G|-----------------|-----------------|
D|-----------------|-----------------|
A|-0-0-0-0-0-0-0-0-|-----------------|
E|-----------------|-2-2-2-2-4-4-4-4-|
x 1


(Feuer und Wasser...)
G|-----------------|-----------------|-----------------|-----------------|
D|-----------------|-----------------|-----------------|-----------------|
A|-0-0-0-0-0-0-0-0-|-----------------|-4-4-4-4-4-4-4-4-|-2-2-2-2-2-2-2-2-|
E|-----------------|-2-2-2-2-4-4-4-4-|-----------------|-----------------|
x 2

G|-----------------|-----------------|-----------------|
D|-----------------|-----------------|-----------------|
A|-0-0-0-0-0-0-0-0-|-----------------|-4~--------------|
E|-----------------|-2-2-2-2-4-4-4-4-|-----------------|
x 1

Almost there ...

Sign in to get your own page with links to favourite songs and more. You are just one click away...

Login with Facebook Login with Google