Search tabs and chords

Search for song, artist or band

Log in

One click and you are in

Login with Facebook Login with Google

Why sign up and log in

Guitar Tabs Explorer
Rammstein guitar tabs for Engel

Guitar tabs

Album: Sehnsucht

Intro (whistle arranged for guitar):
e--10----------------------------|--10--------------------------|
B------10-13----10-12------8-10--|------10-13----10-12-----8----|
G--------------------------------|---------------------------7--|
D--------------------------------|------------------------------|
A--------------------------------|------------------------------|
E--------------------------------|------------------------------|

Main Riff:
e------------------------------------
B------------------------------------
G------------------------------------
D------------------------------------
A--3h5-----6p5-----3h5---3h5---6p5---
E------0-0-----0-0-----0-----0-------
PM     . .     . .     .     .

Verse 1:
Bass

Pre-chorus A chord diagramA majorA (listen to song for timing):
e-------
B--19b--
G--19b--
D-------
A-------
E-------

Chorus A:
|Guitar 1
|Main Riff x2
|
|Guitar 2
|Intro x2

Verse 2 (syntheziser arranged for guitar):
e------------------------------------
B------------------------------------
G--x-x-x--x-x-x---x-x---x-x-x-x------
D--x-x-x--x-x-x---x-x---x-x-x-x------
A--x-x-x--x-x-x---x-x---x-x-x-x------
E------------------------------------

Interlude:
Syntheziser

Pre-chorus B:
Syntheziser & vocals

Chorus B:
|Guitar 1
|Main Riff x2
|
|Guitar 2
|e--10--12--15--13--12--10-----------------------------------
|B--------------------------13--10--12--10--12--12--10--12---
|G-----------------------------------------------------------
|D-----------------------------------------------------------
|A-----------------------------------------------------------
|E-----------------------------------------------------------

Song structure:
Intro
Main Riff x2     (00:20)
Verse 1          (00:40)
Pre-chorus A chord diagramA majorA     (01:00)
Chorus A chord diagramA majorA         (01:20)
Verse 2          (01:42)
Pre-chorus A chord diagramA majorA     (02:02)
Chorus A chord diagramA majorA         (02:23)
Interlude        (02:43)
Pre-chorus A chord diagramBB     (03:13)
Chorus A chord diagramA majorA         (03:33)
Chorus A chord diagramBB         (03:53)
Intro            (04:13)

Other versions of Engel

EngelChords
EngelacousticChords

Almost there ...

Sign in to get your own page with links to favourite songs and more. You are just one click away...

Login with Facebook Login with Google