Guitar Tabs Explorer
Rammstein bass tabs for Engel

Engel bass tab


Be the first to rate

Engel bass tab by Rammstein

Bass tabs

Print

PART 1:
G-----------------------------
D-----------------------------
A--3h5--65--3h5-3h5--65-----
E-----------------------------

G-----------------------------
D--------------------3333-----
A--3h5--65--3h5-3h5----------
E-----------------------------

PART 2:
G-----------------------------
D-----------------------------
A--3h5--65--3h5-3h5--65-----
E-----------------------------   (3x)

G-----------------------------
D--------------------3333-----
A--3h5--65--3h5-3h5----------
E-----------------------------

Comment this song and these bass tabs

Do you have corrections, comments on the bass tabs, thoughts about the song or a message to the author? Write them below.