Log in

One click and you are in

Login with Facebook Login with Google

Why sign up and log in

Guitar Tabs Explorer
Rammstein guitar tabs for Ein leid

Guitar tabs

Tuning: Drop A chord diagramD MajorD OR Drop A chord diagramC majorC

I'm tabbing this song for drop A chord diagramD MajorD
but it can be played in Drop A chord diagramC majorC too,
but it sounds cleaner with drop D.

[Verse]

e|----------------------------------------------------------------|
B|----------------------------------------------------------------|
G|----------------------------------------------------------------|
D|-----3-------3-------2-------2-------5-------5-------2-------2--|
A|---0---0---0---0---3---3---3---3---2---2---2---2---2---2---2---2|
D|-0-------0-------3-------3-------2-------2-------2-------2------|

                             ^ Repeat as needed


[Bridge]

e|-------------------------------------------------------------------|
B|-------------------------------------------------------------------|
G|----------------------------------------4-------4-------4-------4--|
D|-----3-------3-------10-------10-----------------------------------|
A|---3---3---3---3---7----7---7----7---2----2---2---2---2---2---2---2|
D|-3-------3-------7--------7--------2--------2-------2-------2------|

e|----------------------------------------------------------------|
B|----------------------------------------------------------------|
G|----------------------------------------------------------------|
D|-----3-------3-------7-------7-------2-------2-------2-------2--|
A|---3---3---3---3---7---7---7---7---2---2---2---2---2---2---2---2|
D|-3-------3-------7-------7-------2-------2-------2-------2------|


[Flute part]

e|-------------------------------------------8--5-7----5-0|
B|-3----6--10----8----5--------3----6--10-----------------|
G|--------------------------------------------------------|
D|--------------------------------------------------------|
A|--------------------------------------------------------|
D|--------------------------------------------------------|
                              ^

Almost there ...

Sign in to get your own page with links to favourite songs and more. You are just one click away...

Login with Facebook Login with Google