Log in

One click and you are in

Login with Facebook Login with Google

Why sign up and log in

Guitar Tabs Explorer
Rammstein guitar chords for Du hast

Guitar chords

Album: Sehnsucht

Tabbed by Ben Van de Cruys
bendieta@hotmail.com

standerd tuning
Intro synth + drum

Main riff
e-----------------------------------------------------|
B-----------------------------------------------------|
G-----------------------------------------------------|
D--7\5--2-2--2-2-2-2-2---7-5--2-2--2-2-2-2-2----------|
A--7\5--2-2--2-2-2-2-2---7-5--2-2--2-2-2-2-2----------|
E--5\3--0-0--0-0-0-0-0---5-3--0-0--0-0-0-0-0----------|
PM      . .  . . . . .        . .  . . . . .

E-----------------------------------------------------|
B-----------------------------------------------------|
G-----------------------------------------------------|
D--5/7--7-7--7-7-7-7-7--------------------------------|
A--5/7--7-7--7-7-7-7-7--------------------------------|
E--3/5--5-5--5-5-5-5-5--------------------------------|
PM      . .  . . . . .


Verse1:
Synth + bass


Verse2:
Synth arranged for guitar
e--0-0-0---0-0-0---0-0-0---0-0-0----------------------|
B--0-0-0---0-0-0---0-0-0---0-0-0----------------------|
G-----------------------------------------------------|
D-----------------------------------------------------|
A-----------------------------------------------------|
E-----------------------------------------------------|


Chorus
e-----------------------------------------------------|
B-----------------------------------------------------|
G-----------------------------------------------------|
D--7\5--2-2--2-2-2-2-2---7-5--2-2--2-2-2-2-2----------|
A--7\5--2-2--2-2-2-2-2---7-5--2-2--2-2-2-2-2----------|
E--5\3--0-0--0-0-0-0-0---5-3--0-0--0-0-0-0-0----------|
PM      . .  . . . . .        . .  . . . . .

E-----------------------------------------------------|
B-----------------------------------------------------|
G-----------------------------------------------------|
D--5/7--7-7--7-7-7-7-7---5-7--7-7--7-7-7-7-7----------|
A--5/7--7-7--7-7-7-7-7---5-7--7-7--7-7-7-7-7----------|
E--3/5--5-5--5-5-5-5-5---3-5--5-5--5-5-5-5-5----------|
PM      . .  . . . . .        . .  . . . . .




e-----------------------------------------------------|
B-----------------------------------------------------|
G-----------------------------------------------------|
D^×-7/10--10-10--10-10-10-10-10------------------------|
A^×-7/10--10-10--10-10-10-10-10------------------------|
E^×-5/8---8--8---8--8--8--8--8-------------------------|
PM       .  .   .  .  .  .  .

e-----------------------------------------------------|
B-----------------------------------------------------|
G-----------------------------------------------------|
D^×12\9--9-9--9-9-9-9-9--------------------------------|
A^×12\9--9-9--9-9-9-9-9--------------------------------|
E^×10\7--7-7--7-7-7-7-7--------------------------------|
PM      . .  . . . . .

Other versions of Du Hast

Du hast (Ver. 2)Chords
Du hastTabs
Du hast (Ver. 2)Tabs

Almost there ...

Sign in to get your own page with links to favourite songs and more. You are just one click away...

Login with Facebook Login with Google