Guitar Tabs Explorer
Rammstein bass tabs for Du hast

Du Hast bass tab


Be the first to rate

Du Hast bass tab by Rammstein

Bass tabs

Print

Main Riff x6
G|-----------------|
D|-----------------|
A|-----------------|
E|-5-3-0-0-0-0-0-0-|

Pt.1
G|-----------------|
D|-----------------|
A|-----------------|
E|-4-6-6-6-6-6-6-6-|

Verse x10
G|-----------------||-----------------|
D|-----------------||-----------------|
A|-----------------||-----------------|
E|-5-3-0-0-0-0-0-0-||-5-3-0-0-3-0-0-0-|

Main Riff x6

Pt.1 x1

Verse x4

Chorus x3
G|-----------------||-----------------|
D|-----------------||-----------------|
A|-----------------||-----------------|
E|-5-3-0-0-0-0-0-0-||-5-3-0-0-0-0-0-0-|

G|-----------------||-----------------|
D|-----------------||-----------------|
A|-----------------||-----------------|
E|-4-6-6-6-6-6-6-6-||-4-6-6-6-6-6-6-6-|

G|-----------------||-----------------|
D|-----------------||-----------------|
A|-----------------||-----------------|
E|-6-8-8-8-8-8-8-8-||-8-7-7-7-7-7-7-7-|

G|-----------------||-----------------|
D|-----------------||-----------------|
A|-----------------||-----------------|
E|-5-3-0-0-0-0-0-0-||-5-3-0-0-0-0-0-0-|

Break

Chorus x5

Other versions of Du Hast

- Du hast (Ver. 2)Bass tabs

Comment this song and these bass tabs

Do you have corrections, comments on the bass tabs, thoughts about the song or a message to the author? Write them below.