Guitar Tabs Explorer
Rammstein guitar tabs for Donaukinder

Donaukinder tab


Be the first to rate

Donaukinder tab by Rammstein

Guitar tabs

Print

-------------------------------------------------------------------------------
			     Donaukinder - Rammstein
-------------------------------------------------------------------------------
Tabbed by:Entru

Tuning:Dropped D chord diagramDD
 Intro/chorus:
e|--------------------------------------------------------------------------|
B|--------------------------------------------------------------------------|
G|--------------------------------------------------------------------------|
D|-0--5--3--2--3----3-7--------0--5--3--2--3--7--0--------------------------|
A|-0--5--3--2--3----3-7--------0--5--3--2--3--7--0--------------------------|
D|-0--5--3--2--3----3-7-7/19---0--5--3--2--3--7--0--------------------------|
 Bridge:              ~   ~
e|--------------------------------------------------------------------------|
B|--------------------------------------------------------------------------|
G|-7-7-7-7-7-7-7-7--------7-7-7-7-7-7-7-7\5-5-5-5-5-5-5---------------------|
D|-x-x-x-x-x-x-x-x--------x-x-x-x-x-x-x-x-x-x-x-x-x-x-x---------------------|
A|-5-5-5-5-5-5-5-5--------5-5-5-5-5-5-5-5\3-3-3-3-3-3-3---------------------|
D|------------------3--5----------------------------------------------------|
  Pre-break:        ~  ~
e|--------------------------------------------------------------------------|
B|--------------------------------------------------------------------------|
G|--------------------------------------------------------------------------|
D|--------------------------------------------------------------------------|
A|--------------------------------------------------------------------------|
D|-7-7-7-7-7-7-7-7-10-10-10-10-10-10-10-10----------------------------------|

 Then BREAK!
 And then...

 Solo:
e|------------18-------------------------------------------18------------------|
B|-22-20-22~--------------------18~-18-20-17~---22-20-22~----------------------|
G|---------------19~--19-21-22~-------------------------------19~--21-19~-18~--|
D|-----------------------------------------------------------------------------|
A|-----------------------------------------------------------------------------|
D|-----------------------------------------------------------------------------|

e|------------20-18----------------------------------------------18-17/21-22~--|
B|-22-20-22~--------------------------------------------20-18-17---------------|
G|------------------19~--19-21-22~-22-22^-21---22-21-19------------------------|
D|-----------------------------------------------------------------------------|
A|-----------------------------------------------------------------------------|
D|-----------------------------------------------------------------------------|

 That's it!Enjoy playing one of my favorite songs from new record!

| ^  bend
| /  slide up
| \  slide down
| h  hammer-on
| p  pull-off
| ~  vibrato
| +  harmonic
| x  Mute note

Other versions of Donaukinder

DonaukinderChords

Comment this song and these guitar tabs

Do you have corrections, comments on the guitar tabs, thoughts about the song or a message to the author? Write them below.