Search tabs and chords

Search for song, artist or band

Log in

One click and you are in

Login with Facebook Login with Google

Why sign up and log in

Guitar Tabs Explorer
Rammstein bass tabs for Deutschland

Bass tabs

Tuning: Drop D (D A D G)

Difficulty: Novice

Intro:
(start at 1:28)
G|-------------------------------------------------------------------------------|
D|-------------------------------------------------------------------------------|
A|-------------------------------------------------------------------------------|
D|-0(hold)-------5---7---10(hold)-----10-0-1(hold)----------0(hold)--------0/12--|

Chorus:
(start at 1:52)
G|-------------------------------------------------------------------------------|
D|-------------------------------------------------------------------------------|
A|-------------------------------------------------------------------------------|
D|-0-0-0-0-0-0-0-0-0-0-0-0-5-5-7-7-10-10-10-10-10-10-10-10-10-10-0-0-------------|

G|-------------------------------------------------------------------------------|
D|-------------------------------------------------------------------------------|
A|-------------------------------------------------------------------------------|
D|-1-1-1-1-1-1-1-1-1-1-1-1-1-1-1-1-0-0-0-0-0-0-0-0-0-0-0-0-0-0-0-0---------------|

Verse:
(start at 2:08)
G|----------------------------------------------------------------|
D|-0-0-0-0-0-0-0-0-0-0-0-0-0-0-0-0-1-1-1-1-1-1-1-1-1-1-1-1-1-1-1-1|
A|----------------------------------------------------------------|
D|----------------------------------------------------------------|

G|----------------------------------------------------------------|
D|---------------------------------0-0-0-0-0-0-0-0-0-0-0-0-0-0-0-0|
A|-3-3-3-3-3-3-3-3-3-3-3-3-3-3-3-3--------------------------------|
D|----------------------------------------------------------------|

G|----------------------------------------------------------------|
D|-0-0-0-0-0-0-0-0-0-0-0-0-0-0-0-0-1-1-1-1-1-1-1-1-1-1-1-1-1-1-1-1|
A|----------------------------------------------------------------|
D|----------------------------------------------------------------|

G|----------------------------------------------------------------|
D|---------------------------------0-0-0-0-0-0-0-0-0-0-0-0-0-0-0-0|
A|-3-3-3-3-3-3-3-3-3-3-3-3-3-3-3-3--------------------------------|
D|----------------------------------------------------------------|

G|----------------------------------------------------------------|
D|-0-0-0-0-0-0-0-0-0-0-0-0-0-0-0-0-1-1-1-1-1-1-1-1-1-1-1-1-1-1-1-1|
A|----------------------------------------------------------------|
D|----------------------------------------------------------------|

G|----------------------------------------------------------------|
D|---------------------------------0-0-0-0-0-0-0-0-0-0-0-0-0-0-0-0|
A|-3-3-3-3-3-3-3-3-3-3-3-3-3-3-3-3--------------------------------|
D|----------------------------------------------------------------|

Chorus:
G|-------------------------------------------------------------------------------|
D|-------------------------------------------------------------------------------|
A|-------------------------------------------------------------------------------|
D|-0-0-0-0-0-0-0-0-0-0-0-0-5-5-7-7-10-10-10-10-10-10-10-10-10-10-0-0-------------|

G|-------------------------------------------------------------------------------|
D|-------------------------------------------------------------------------------|
A|-------------------------------------------------------------------------------|
D|-1-1-1-1-1-1-1-1-1-1-1-1-1-1-1-1-0-0-0-0-0-0-0-0-0-0-0-0-0-0-0-0---------------|

G|-------------------------------------------------------------------------------|
D|-------------------------------------------------------------------------------|
A|-------------------------------------------------------------------------------|
D|-0-0-0-0-0-0-0-0-0-0-0-0-5-5-7-7-10-10-10-10-10-10-10-10-10-10-0-0-------------|

G|-------------------------------------------------------------------------------|
D|-------------------------------------------------------------------------------|
A|-------------------------------------------------------------------------------|
D|-1-1-1-1-1-1-1-1-1-1-1-1-1-1-1-1-0-0-0-0-0-0-0-0-0-0-0-0-0-0-0-0---------------|

Verse:
G|----------------------------------------------------------------|
D|-0-0-0-0-0-0-0-0-0-0-0-0-0-0-0-0-1-1-1-1-1-1-1-1-1-1-1-1-1-1-1-1|
A|----------------------------------------------------------------|
D|----------------------------------------------------------------|

G|----------------------------------------------------------------|
D|---------------------------------0-0-0-0-0-0-0-0-0-0-0-0-0-0-0-0|
A|-3-3-3-3-3-3-3-3-3-3-3-3-3-3-3-3--------------------------------|
D|----------------------------------------------------------------|

G|----------------------------------------------------------------|
D|-0-0-0-0-0-0-0-0-0-0-0-0-0-0-0-0-1-1-1-1-1-1-1-1-1-1-1-1-1-1-1-1|
A|----------------------------------------------------------------|
D|----------------------------------------------------------------|

G|----------------------------------------------------------------|
D|---------------------------------0-0-0-0-0-0-0-0-0-REST---------|
A|-3-3-3-3-3-3-3-3-3-3-3-3-3-3-3-3--------------------------------|
D|----------------------------------------------------------------|

Chorus:
G|-------------------------------------------------------------------------------|
D|-------------------------------------------------------------------------------|
A|-------------------------------------------------------------------------------|
D|-0-0-0-0-0-0-0-0-0-0-0-0-5-5-7-7-10-10-10-10-10-10-10-10-10-10-0-0-------------|

G|-------------------------------------------------------------------------------|
D|-------------------------------------------------------------------------------|
A|-------------------------------------------------------------------------------|
D|-1-1-1-1-1-1-1-1-1-1-1-1-1-1-1-1-0-0-0-0-0-0-0-0-0-0-0-0-0-0-0-0---------------|

G|-------------------------------------------------------------------------------|
D|-------------------------------------------------------------------------------|
A|-------------------------------------------------------------------------------|
D|-0-0-0-0-0-0-0-0-0-0-0-0-5-5-7-7-10-10-10-10-10-10-10-10-10-10-0-0-------------|

G|-------------------------------------------------------------------------------|
D|-------------------------------------------------------------------------------|
A|-------------------------------------------------------------------------------|
D|-1-1-1-1-1-1-1-1-1-1-1-1-1-1-1-1-0-0-0-0-0-0-0-0-0-0-0-0-0-0-0-0---------------|

G|-------------------------------------------------------------------------------|
D|-------------------------------------------------------------------------------|
A|-------------------------------------------------------------------------------|
D|-0-0-0-0-0-0-0-0-0-0-0-0-5-5-7-7-10-10-10-10-10-10-10-10-10-10-0-0-------------|

G|-------------------------------------------------------------------------------|
D|-------------------------------------------------------------------------------|
A|-------------------------------------------------------------------------------|
D|-1-1-1-1-1-1-1-1-1-1-1-1-1-1-1-1-0-0-0-0-0-0-0-0-0-0-0-0-0-0-0-0---------------|

Bridge:
(start at 5:19)
G|-----------------------------------------------------------------|
D|-0-0-0-0-0-0-0-0-0-0-0-0-0-0-0-0---------------------------------|
A|---------------------------------3-3-3-3-3-3-3-3-3-3-3-3-3-3-3-3-|
D|-----------------------------------------------------------------|

G|-----------------------------------------------------------------|
D|-5-5-5-5-5-5-5-5-5-5-5-5-5-5-5-5-7-7-7-7-7-7-7-7-7-7-7-7-7-7-7-7-|
A|-----------------------------------------------------------------|
D|-----------------------------------------------------------------|

Chorus:
G|-------------------------------------------------------------------------------|
D|-------------------------------------------------------------------------------|
A|-------------------------------------------------------------------------------|
D|-0-0-0-0-0-0-0-0-0-0-0-0-5-5-7-7-10-10-10-10-10-10-10-10-10-10-0-0-------------|

G|-------------------------------------------------------------------------------|
D|-------------------------------------------------------------------------------|
A|-------------------------------------------------------------------------------|
D|-1-1-1-1-1-1-1-1-1-1-1-1-1-1-1-1-0-0-0-0-0-0-0-0-0-0-0-0-0-0-0-0---------------|

G|---------------------------------------------------------------------------------------|
D|---------------------------------------------------------------------------------------|
A|---------------------------------------------------------------------------------------|
D|-0-0-0-0-0-0-0-0-0-0-0-0-5-5-7-7-10-10-10-10-10-10-10-10-10-10-10-10-10-10-10-10-10-10-|

G|-------------------------------------------------------------------------------|
D|-------------------------------------------------------------------------------|
A|-------------------------------------------------------------------------------|
D|-1-1-1-1-1-1-1-1-1-1-1-1-1-1-1-1-0-0-0-0-0-0-0-0-0-0-0-0-0-0-0-0---------------|

G|-------------------------------------------------------------------------------|
D|-------------------------------------------------------------------------------|
A|-------------------------------------------------------------------------------|
D|-0-0-0-0-0-0-0-0-0-0-0-0-5-5-7-7-10-10-10-10-10-10-10-10-10-10-0-0-------------|

G|-------------------------------------------------------------------------------|
D|-------------------------------------------------------------------------------|
A|-------------------------------------------------------------------------------|
D|-1-1-1-1-1-1-1-1-1-1-1-1-1-1-1-1-0-0-0-0-0-0-0-0-0-0-0-0-0-0-0-0---------------|


************************************

| (hold)  hold the note
| /       Slide up

************************************

Almost there ...

Sign in to get your own page with links to favourite songs and more. You are just one click away...

Login with Facebook Login with Google