Search tabs and chords

Search for song, artist or band

Log in

One click and you are in

Login with Facebook Login with Google

Why sign up and log in

Guitar Tabs Explorer
Rammstein guitar tabs for Der meister (Ver. 2)

Guitar tabs

Tuning: Drop D chord diagramDD


Intro:

(Guitar 1)

e|-------------------------------------------------------------------|
B|-------------------------------------------------------------------|
G|---------7/8---------7/8------7/8----------7/8---------7/8------5/6| x8
D|---------7/8---------7/8------7/8----------7/8---------7/8------5/6|
A|---------5/6---------5/6------5/6----------5/6---------5/6------3/4|
D|-0-0-0-0-----0-0-0-0-----0-0------0-0-0-0------0-0-0-0-----0-0-----|
. . . .     . . . .     . .      . . . .      . . . .     . .
Intro:

(Guitar 2)

e|---------------------------------------------------------------------------|
B|---------------------------------------------------------------------------|
G|----------7/8-----------7/8-------7/8-----------7/8-----------7/8-------5/6| x8
D|-0-0-0-0--7/8--0-0-0-0--7/8--0-0--7/8--0-0-0-0--7/8--0-0-0-0--7/8--0-0--5/6|
A|---------------------------------------------------------------------------|
D|---------------------------------------------------------------------------|
. . . .       . . . .       . .       . . . .       . . . .       . .

Then...

e|--------------------------|
B|--------------------------|
G|-7--5--7--5--7--5--7--5--8| x4
D|-7--5--7--5--7--5--7--5--8|
A|-5--3--5--3--5--3--5--3--6|
D|--------------------------|

Verse:

(Guitar 1)

e|-----------------------------------------------------------|
B|-----------------------------------------------------------|
G|---------7/8---------7/8------7/8----------7/8---------7/8-| x3
D|---------7/8---------7/8------7/8----------7/8---------7/8-|
A|---------5/6---------5/6------5/6----------5/6---------5/6-|
D|-0-0-0-0-----0-0-0-0-----0-0------0-0-0-0------0-0-0-0-----|
. . . .     . . . .     . .      . . . .      . . . .


Verse:

(Guitar 2)

e|------------------------------------------------------------------|
B|------------------------------------------------------------------|
G|----------7/8-----------7/8-------7/8-----------7/8-----------7/8-| x3
D|-0-0-0-0--7/8--0-0-0-0--7/8--0-0--7/8--0-0-0-0--7/8--0-0-0-0--7/8-|
A|------------------------------------------------------------------|
D|------------------------------------------------------------------|
. . . .       . . . .       . .       . . . .       . . . .


Chorus 1 and 2:

(Guitar 1)

e|-------------------------------------------------------------------|
B|-------------------------------------------------------------------|
G|---------7/8---------7/8------7/8----------7/8---------7/8------5/6| x4
D|---------7/8---------7/8------7/8----------7/8---------7/8------5/6|
A|---------5/6---------5/6------5/6----------5/6---------5/6------3/4|
D|-0-0-0-0-----0-0-0-0-----0-0------0-0-0-0------0-0-0-0-----0-0-----|
. . . .     . . . .     . .      . . . .      . . . .     . .

e|-----------------------------------------------------------|
B|-----------------------------------------------------------|
G|---------7/8---------7/8------7/8----------7/8---------7/8-| x4
D|---------7/8---------7/8------7/8----------7/8---------7/8-|
A|---------5/6---------5/6------5/6----------5/6---------5/6-|
D|-0-0-0-0-----0-0-0-0-----0-0------0-0-0-0------0-0-0-0-----|
. . . .     . . . .     . .      . . . .      . . . .


Chorus 1 and 2:

(Guitar 2)

e|---------------------------------------------------------------------------|
B|---------------------------------------------------------------------------|
G|----------7/8-----------7/8-------7/8-----------7/8-----------7/8-------5/6| x4
D|-0-0-0-0--7/8--0-0-0-0--7/8--0-0--7/8--0-0-0-0--7/8--0-0-0-0--7/8--0-0--5/6|
A|---------------------------------------------------------------------------|
D|---------------------------------------------------------------------------|
. . . .       . . . .       . .       . . . .       . . . .       . .

e|------------------------------------------------------------------|
B|------------------------------------------------------------------|
G|----------7/8-----------7/8-------7/8-----------7/8-----------7/8-| x4
D|-0-0-0-0--7/8--0-0-0-0--7/8--0-0--7/8--0-0-0-0--7/8--0-0-0-0--7/8-|
A|------------------------------------------------------------------|
D|------------------------------------------------------------------|
. . . .       . . . .       . .       . . . .       . . . .

Then...

e|--------------------------|
B|--------------------------|
G|-7--5--7--5--7--5--7--5--8| x3
D|-7--5--7--5--7--5--7--5--8|
A|-5--3--5--3--5--3--5--3--6|
D|--------------------------|


Bridge:

x2                           x2
e|--------------------------||---------------------------|
B|--------------------------||---------------------------|
G|-7--5--7--5--7--5--7--5--8||-9--7--9--7--9--7--9--7--10|
D|-7--5--7--5--7--5--7--5--8||-9--7--9--7--9--7--9--7--10|
A|-5--3--5--3--5--3--5--3--6||-7--5--7--5--7--5--7--5--8-|
D|--------------------------||---------------------------|


Ending Riff:

x3
e|-----||-----------|
B|-----||-----------|
G|-7--5||-7--5--8--7|
D|-7--5||-7--5--8--7|
A|-5--3||-5--3--6--5|
D|-----||-----------|



*****************
|/   Slide up
|.   Palm mute
*****************

Other versions of Der Meister

Der meisterTabs

Almost there ...

Sign in to get your own page with links to favourite songs and more. You are just one click away...

Login with Facebook Login with Google