Search tabs and chords

Search for song, artist or band

Log in

One click and you are in

Login with Facebook Login with Google

Why sign up and log in

Guitar Tabs Explorer
Rammstein guitar tabs for Das alte leid

Guitar tabs

Tuning: Drop D chord diagramDD or Standard (Doesn't matter)

Main Riff/Chorus:

e|------------------------|
B|------------------------|
G|------------------------| Just repeat until you hit
D|-2-4--2-4----4-2--4/7--2| the first verse.
A|-2-4--2-4----4-2--4/7--2|
D|-2-4--2-4--4-4-2--4/7--2|
.

Verse 1::
x4                    x4
e|-------------||------|-------------|
B|-------------||------|-------------|
G|-------------||------|-------------|
D|-------------||------|-------------|
A|-2-2--2-2-2-2||------|-2-2--2-2-2-2|
D|-2-2--2-2-2-2||-5b7r5|-2-2--2-2-2-2|
. .  . . . .          . .  . . . .


Verse 2::
x4                    x3
e|-------------||------|-------------||------------|
B|-------------||------|-------------||------------|
G|-------------||------|-------------||------------|
D|-------------||------|-------------||----------2~|
A|-2-2--2-2-2-2||------|-2-2--2-2-2-2||-2-2--2-2-2~|
D|-2-2--2-2-2-2||-5b7r5|-2-2--2-2-2-2||-2-2--2-2-2~|
. .  . . . .          . .  . . . .   . .  . .


Bridge::
x3
e|--------------||--------------|
B|--------------||--------------|
G|--------------||--------------|
D|--------------||-------------4|
A|-2-4--2-4--2-4||-2-4--2-4--2-4|
D|-2-4--2-4--2-4||-2-4--2-4--2-4|
. .  . .  . .   . .  . .  .

Pre-Solo:: (Tremolo Picking)

e|---|
B|-17|
G|---| Do this for a little bit, then...
D|---|
A|---|
D|---|


Solo::

e|---------------------------------------------|
B|-14-14-14-14-14-14-14-14-14-14-14-14-14-14---|
G|-------------------------------------------11|
D|---------------------------------------------|
A|---------------------------------------------|
D|---------------------------------------------|

e|---------------------------------------------------|
B|-14-14-14-14-14-14-14-14-14-14-14-14-14-14---------|
G|-------------------------------------------11h12p11| Repeat as needed
D|---------------------------------------------------|
A|---------------------------------------------------|
D|---------------------------------------------------|



************************************

| h  Hammer-on
| p  Pull-off
| r  Release
| b  Bend
| /  Slide up
| ~  Vibrato

Other versions of Das Alte Leid

Das alte leidChords

Almost there ...

Sign in to get your own page with links to favourite songs and more. You are just one click away...

Login with Facebook Login with Google