Search tabs and chords

Search for song, artist or band

Log in

One click and you are in

Login with Facebook Login with Google

Why sign up and log in

Guitar Tabs Explorer
Rammstein guitar tabs for Buckstabu

Guitar tabs

----------------------------------------------------------------------------
			     B chord diagramBBückstabü - Rammstein
----------------------------------------------------------------------------

Tabbed by: Bee-Ay

Tuning: D chord diagramDD-A chord diagramAA-D chord diagramDD-G chord diagramGG-B chord diagramBB-E chord diagramEE
B chord diagramBBückstabü... Right... Very Asche zu asche/feuer frei! guitarish sound on this song.

e|-------------|
B|-------------|
G|-------------|
D|-6-6-6-3-3-3-|
A|-6-6-6-3-3-3-|
D|-6-6-6-3-3-3-|


Intro chorus:
e|------------------------------------------------------------------|
B|------------------------------------------------------------------|
G|------------------------------------------------------------------|
D|-6-0-0-6-0-0-6-0-0-6-7-7-x3-and-then--6-0-0-6-0-0-----------------|
A|-6-0-0-6-0-0-6-0-0-6-7-7--------------6-0-0-6-0-0-----------------|
D|-6-0-0-6-0-0-6-0-0-6-7-7--------------6-0-0-6-0-0-10/12-0-17\15-0-|

e|------------------------------------------------------------------|
B|------------------------------------------------------------------|
G|------------------------------------------------------------------|
D|-6-0-0-6-0-0-6-0-0-6-7-7-x3-and-then--6-0-0-6-0-0-6---5-----------|
A|-6-0-0-6-0-0-6-0-0-6-7-7--------------6-0-0-6-0-0-6---5-----------|
D|-6-0-0-6-0-0-6-0-0-6-7-7--------------6-0-0-6-0-0-6---5-----------|


Verse:
Guitar 1:
e|-------------------------|
B|-------------------------|
G|-------------------------|
D|-------------------------| x8
A|-6-0-0-6-0-0-6-0-0-6-7-7-|
D|-6-0-0-6-0-0-6-0-0-6-7-7-|
pm . . . . . . . . . . . .

Guitar1:
e|-------------------------------------------------|
B|-------------------------------------------------|
G|-------------------------------------------------|
D|-------------------------------------------------|
A|-0-0-0-0-0-0-0-0-0-0-0-0-5-5-5-5-5-5-6-6-6-3-3-3-|
D|-0-0-0-0-0-0-0-0-0-0-0-0-5-5-5-5-5-5-6-6-6-3-3-3-|
pm . . . . . . . . . . . . . . . . . . . . . . . .

                                          Distorted
e|-------------------------------------|-------------|
B|-------------------------------------|-------------|
G|-------------------------------------|-------------|
D|-------------------------------------|-6-6-6-3-3-3-|
A|-0-0-0-0-0-0-0-0-0-0-0-0-5-5-5-5-5-5-|-6-6-6-3-3-3-|
D|-0-0-0-0-0-0-0-0-0-0-0-0-5-5-5-5-5-5-|-6-6-6-3-3-3-|
pm . . . . . . . . . . . . . . . . . .

Guitar 2:
Space between notes only made for better understanding.
e|------------------------------------------------------|
B|------------------------------------------------------|
G|-5/7-7-7-7-7-7-7-7-7-7-7--101010101010-12-12-12-7-7-7-|
D|-x-x-x-x-x-x-x-x-x-x-x-x--x-x-x-x-x-x--x--x--x--x-x-x-|
A|-3/5-5-5-5-5-5-5-5-5-5-5--8-8-8-8-8-8--10-10-10-5-5-5-|
D|------------------------------------------------------|

e|---------------------------------------------------------|
B|---------------------------------------------------------|
G|-7-7-7-7-7-7-7-7-7-7-7-7--101010101010-12-12-12-12-12-12-|
D|-x-x-x-x-x-x-x-x-x-x-x-x--x-x-x-x-x-x--x--x--x--x--x--x--|
A|-5-5-5-5-5-5-5-5-5-5-5-5--8-8-8-8-8-8--10-10-10-10-10-10-|
D|---------------------------------------------------------|


First chorus ends with a few changes in end:
e|-------------------------------------------------------------------|
B|-------------------------------------------------------------------|
G|-------------------------------------------------------------------|
D|-6-0-0-6-0-0-6-0-0-6-7-7--x3-and-then--6-0-0-6-0-0-----------------|
A|-6-0-0-6-0-0-6-0-0-6-7-7---------------6-0-0-6-0-0-----------------|
D|-6-0-0-6-0-0-6-0-0-6-7-7---------------6-0-0-6-0-0-10/12-0-17\15-0-|

e|-------------------------------------------------------------------|
B|-------------------------------------------------------------------|
G|-------------------------------------------------------------------|
D|-6-0-0-6-0-0-6-0-0-6-7-7--x3-and-then--6-0-0-6-0-0-6-6-6-3-3-3-0~~-|
A|-6-0-0-6-0-0-6-0-0-6-7-7---------------6-0-0-6-0-0-6-6-6-3-3-3-0~~-|
D|-6-0-0-6-0-0-6-0-0-6-7-7---------------6-0-0-6-0-0-6-6-6-3-3-3-0~~-|


Back to verse...


Second chorus ends with a change up to bridge:
e|-------------------------------------------------------------------|
B|-------------------------------------------------------------------|
G|-------------------------------------------------------------------|
D|-6-0-0-6-0-0-6-0-0-6-7-7--x3-and-then--6-0-0-6-0-0-----------------|
A|-6-0-0-6-0-0-6-0-0-6-7-7---------------6-0-0-6-0-0-----------------|
D|-6-0-0-6-0-0-6-0-0-6-7-7---------------6-0-0-6-0-0-10/12-0-17\15-0-|

e|---------------------------------------------------------------|
B|---------------------------------------------------------------|
G|---------------------------------------------------------------|
D|-6-0-0-6-0-0-6-0-0-6-7-7--x3-and-then--6-0-0-6-0-0-6-6-6-6-6-6-|
A|-6-0-0-6-0-0-6-0-0-6-7-7---------------6-0-0-6-0-0-6-6-6-6-6-6-|
D|-6-0-0-6-0-0-6-0-0-6-7-7---------------6-0-0-6-0-0-6-6-6-6-6-6-|

Bridge:
Guitar 1:
e|-------------------------------------------------------------------------------------------------|
B|-------------------------------------------------------------------------------------------------|
G|-------------------------------------------------------------------------------------------------|
D|-3-3-3-3-3-3-3-3-3-3-3-3-2-2-2-2-2-2-2-2-2-2-2-2-5-5-5-5-5-5-5-5-5-5-5-5-4-4-4-4-4-4-4-4-4-4-4-4-|
A|-3-3-3-3-3-3-3-3-3-3-3-3-2-2-2-2-2-2-2-2-2-2-2-2-5-5-5-5-5-5-5-5-5-5-5-5-4-4-4-4-4-4-4-4-4-4-4-4-|
D|-3-3-3-3-3-3-3-3-3-3-3-3-2-2-2-2-2-2-2-2-2-2-2-2-5-5-5-5-5-5-5-5-5-5-5-5-4-4-4-4-4-4-4-4-4-4-4-4-|

e|-------------------------------------------------------------------------------------------------|
B|-------------------------------------------------------------------------------------------------|
G|-------------------------------------------------------------------------------------------------|
D|-3-3-3-3-3-3-3-3-3-3-3-3-2-2-2-2-2-2-2-2-2-2-2-2-5-5-5-5-5-5-5-5-5-5-5-5-3-3-3-3-3-3-3-3-3-3-3-3-|
A|-3-3-3-3-3-3-3-3-3-3-3-3-2-2-2-2-2-2-2-2-2-2-2-2-5-5-5-5-5-5-5-5-5-5-5-5-3-3-3-3-3-3-3-3-3-3-3-3-|
D|-3-3-3-3-3-3-3-3-3-3-3-3-2-2-2-2-2-2-2-2-2-2-2-2-5-5-5-5-5-5-5-5-5-5-5-5-3-3-3-3-3-3-3-3-3-3-3-3-|


Guitar 2:
e|-------------------------|
B|-------------------------|
G|-5-5-5-5-5-5-5-5-5-5-5-5-|
D|-x-x-x-x-x-x-x-x-x-x-x-x-|
A|-3-3-3-3-3-3-3-3-3-3-3-3-|
D|-------------------------|


e|-------------------------------------------------------------------------------------|
B|-------------------------------------------------------------------------------------|
G|-7-7-7-7-7-7-7-7-7-7-7-7-7-7-7-7-7-7-7-7-7-7-7-7-14-14-14-14-14-14-14-14-14-14-14-14-|
D|-x-x-x-x-x-x-x-x-x-x-x-x-x-x-x-x-x-x-x-x-x-x-x-x-x--x--x--x--x--x--x--x--x--x--x--x--|x2
A|-5-5-5-5-5-5-5-5-5-5-5-5-5-5-5-5-5-5-5-5-5-5-5-5-12-12-12-12-12-12-12-12-12-12-12-12-|
D|-------------------------------------------------------------------------------------|


C chord diagramCC-part:
e|--------------------------|
B|--------------------------|
G|--------------------------|
D|-10\7--10\7--10\7---6-6-6-| x7
A|--8\5---8\5---8\5---4-4-4-|
D|------0-----0-----0-------|
pm:     .     .     .

e|-----------------------|
B|-----------------------|
G|-----------------------|
D|-10\7--10\7--10\7---6~-|
A|--8\5---8\5---8\5---4~-|
D|------0-----0-----0----|
pm:     .     .     .

Interlude/alternate chorus:
This is played 8 times. The last time its played, the 6 last notes are distorted.
e|-------------------------------------------------|
B|-------------------------------------------------|
G|-------------------------------------------------|
D|-------------------------------------------------|
A|-0-0-0-0-0-0-0-0-0-0-0-0-5-5-5-5-5-5-6-6-6-3-3-3-|
D|-0-0-0-0-0-0-0-0-0-0-0-0-5-5-5-5-5-5-6-6-6-3-3-3-|
pm . . . . . . . . . . . . . . . . . . . . . . . .


Final chorus:
e|-------------------------------------------------------------------|
B|-------------------------------------------------------------------|
G|-------------------------------------------------------------------|
D|-6-0-0-6-0-0-6-0-0-6-7-7--x3-and-then--6-0-0-6-0-0-----------------|
A|-6-0-0-6-0-0-6-0-0-6-7-7---------------6-0-0-6-0-0-----------------|
D|-6-0-0-6-0-0-6-0-0-6-7-7---------------6-0-0-6-0-0-10/12-0-17\15-0-|

e|----------------------------------------------------------------|
B|----------------------------------------------------------------|
G|----------------------------------------------------------------|
D|-6-0-0-6-0-0-6-0-0-6-7-7--x3-and-then--6-6-6-6-6-6-6------------|
A|-6-0-0-6-0-0-6-0-0-6-7-7---------------6-6-6-6-6-6-6----6-6-6-6-|
D|-6-0-0-6-0-0-6-0-0-6-7-7---------------6-6-6-6-6-6-6----6-6-6-6-|
pm:                                                       . . . .


Fuck this shit, hahaha. Sorry for this long tab everyone. Hope it works.

Almost there ...

Sign in to get your own page with links to favourite songs and more. You are just one click away...

Login with Facebook Login with Google