Log in

One click and you are in

Login with Facebook Login with Google

Why sign up and log in

Guitar Tabs Explorer
Rammstein chords for Buck dich

Chords

Album: Sehnsucht

Tabbed by Kristof Smits

Drop A chord diagramD MajorD Tuning
Intro:
Drum, Synth & Vocals=20


Main Riff:
e-----------------------------------------------
B-----------------------------------------------
G-----------------------------------------------
D--0----3----2----3----5----3----0-2-3-0--------
A--0----3----2----3----5----3----0-2-3-0--------
D--0-0--3-0--2-0--3-0--5-0--3-0--0-2-3-0--0-0---
PM   .    .    .    .    .    .           . .

                                       (x3)
e------------------------------------------
B------------------------------------------
G------------------------------------------
D--3----2----3----5----3----0-2-3-0--------
A--3----2----3----5----3----0-2-3-0--------
D--3-0--2-0--3-0--5-0--3-0--0-2-3-0--0-0---
PM   .    .    .    .    .           . .

Fill 1:
e-----------------
B-----------------
G-----------------
D--0-2-3-0--------
A--0-2-3-0--0-0---
D--0-2-3-0--0-0---
PM          . .
Verse 1:
Bass


Verse 2:

Main Riff (heavy palm muting)

Fill 2
e----------------------
B----------------------
G----------------------
D--0-1-1-1-1-1-1-1-1---
A--0-1-1-1-1-1-1-1-1---
D--0-1-1-1-1-1-1-1-1---
PM .

Interlude:
Drum, Synth & Vocals


Outro:
e-----------------------------------------
B-----------------------------------------
G-----------------------------------------
D--0-1-1-1-1-1-1-1-1--1-1-1-1-1-1-1-1-0---
A--0-1-1-1-1-1-1-1-1--1-1-1-1-1-1-1-1-0---
D--0-1-1-1-1-1-1-1-1--1-1-1-1-1-1-1-1-0---
PM .

Song structure:

Intro

Main Riff x2      (00:19) first time; abrupt stop (listen to song for =
timing)
Fill 1            (01:10)

Main Riff         (01:11) abrupt stop (listen to song for timing)

Main Riff         (01:30)

Verse 2           (01:43)

Main Riff         (02:09)
Fill 2            (02:22)

Main Riff x1/2    (02:25)
Fill 2            (02:31) let ring on the open A chord diagramD MajorD string
Interlude         (02:35)

Main Riff         (03:00)

Outro             (03:13)

This song live has some kind of SM-act, poor Flake...lol. =20
ⓘ Guitar chords for 'Buck Dich' by Rammstein, an industrial metal band formed in 1994 from Berlin, Germany

Other versions of Buck Dich

Other alternative guitar chords and tabs for the song Buck dich by Rammstein
Buck dichChords

Almost there ...

Sign in to get your own page with links to favourite songs and more. You are just one click away...

Login with Facebook Login with Google