Search tabs and chords

Search for song, artist or band

Log in

One click and you are in

Login with Facebook Login with Google

Why sign up and log in

Guitar Tabs Explorer
Rammstein guitar tabs for Ausländer

Guitar tabs

Tuning: Drop C chord diagramCC (C chord diagramCC G chord diagramGG C chord diagramCC F chord diagramFF A chord diagramAA D chord diagramDD)

Intro:

D|---------------------------------------------------------------------------|
A|---------------------------------------------------------------------------|
F| chord diagramF|F|---------------------------------------------------------------------------|
C| chord diagramC|C|---7-7-7-7-7-7--7-7-7\5-5-5--5-5-5\3-3-3--3-3-3-2-7------------------------|
G|---7-7-7-7-7-7--7-7-7\5-5-5--5-5-5\3-3-3--3-3-3-2-7------------------------|
C| chord diagramC|C|---7-7-7-7-7-7--7-7-7\5-5-5--5-5-5\3-3-3--3-3-3-2-7------------------------|

D|---------------------------------------------------------------------------|
A|---------------------------------------------------------------------------|
F| chord diagramF|F|---------------------------------------------------------------------------|
C| chord diagramC|C|---7-7-7-7-7-7--7-7-7\5-5-5--5-5-5\3-3-3--3-3-3-2-7-------7-7-7-7-7-7------|
G|---7-7-7-7-7-7--7-7-7\5-5-5--5-5-5\3-3-3--3-3-3-2-7-------7-7-7-7-7-7------|
C| chord diagramC|C|---7-7-7-7-7-7--7-7-7\5-5-5--5-5-5\3-3-3--3-3-3-2-7-------7-7-7-7-7-7------|
Pre-chorus: (clean)

D|---------------------------------------------------------------------------|
A|---------------------------------------------------------------------------|
F| chord diagramF|F|---------------------------------------------------------------------------|
C| chord diagramC|C|--10-10-10-10-9-9--x2----12-12-12-12-9-9--x2----10-10-10-10-9-9---x2-------|
G|---------------------------------------------------------------------------|
C| chord diagramC|C|---------------------------------------------------------------------------|

D|---------------------------------------------------------------------------|
A|---------------------------------------------------------------------------|
F| chord diagramF|F|---------------------------------------------------------------------------|
C| chord diagramC|C|--14-14-14-14-9-9--x2------14-14-14-14-13-13--x2-------13~-----13~---------|
G|---------------------------------------------------------------------------|
C| chord diagramC|C|---------------------------------------------------------------------------|

Chorus:

D|---------------------------------------------------------------------------|
A|---------------------------------------------------------------------------|
F| chord diagramF|F|---------------------------------------------------------------------------|
C| chord diagramC|C|---7-7-7-7-7-7--7-7-7\5-5-5--5-5-5\3-3-3--3-3-3-2-7------------------------|
G|---7-7-7-7-7-7--7-7-7\5-5-5--5-5-5\3-3-3--3-3-3-2-7------------------------|
C| chord diagramC|C|---7-7-7-7-7-7--7-7-7\5-5-5--5-5-5\3-3-3--3-3-3-2-7------------------------|

D|---------------------------------------------------------------------------|
A|---------------------------------------------------------------------------|
F| chord diagramF|F|---------------------------------------------------------------------------|
C| chord diagramC|C|---7-7-7-7-7-7--7-7-7\5-5-5--5-5-5\3-3-3--3-3-3-2-7------------------------|
G|---7-7-7-7-7-7--7-7-7\5-5-5--5-5-5\3-3-3--3-3-3-2-7------------------------|
C| chord diagramC|C|---7-7-7-7-7-7--7-7-7\5-5-5--5-5-5\3-3-3--3-3-3-2-7------------------------|

D|---------------------------------------------------------------------------|
A|---------------------------------------------------------------------------|
F| chord diagramF|F|---------------------------------------------------------------------------|
C| chord diagramC|C|---7-7-7-7-7-7--7-7-7\5-5-5--5-5-5\3-3-3--3-3-3-2-7------------------------|
G|---7-7-7-7-7-7--7-7-7\5-5-5--5-5-5\3-3-3--3-3-3-2-7------------------------|
C| chord diagramC|C|---7-7-7-7-7-7--7-7-7\5-5-5--5-5-5\3-3-3--3-3-3-2-7------------------------|



D|---------------------------------------------------------------------------|
A|---------------------------------------------------------------------------|
F| chord diagramF|F|---------------------------------------------------------------------------|
C| chord diagramC|C|---7-7-7-7-7-7--7-7-7\5-5-5--5-5-5\3-3-3--3-3-3-2-7-------7-7-7-7-7-7------|
G|---7-7-7-7-7-7--7-7-7\5-5-5--5-5-5\3-3-3--3-3-3-2-7-------7-7-7-7-7-7------|
C| chord diagramC|C|---7-7-7-7-7-7--7-7-7\5-5-5--5-5-5\3-3-3--3-3-3-2-7-------7-7-7-7-7-7------|


Pre-chorus: (clean)

D|---------------------------------------------------------------------------|
A|---------------------------------------------------------------------------|
F| chord diagramF|F|---------------------------------------------------------------------------|
C| chord diagramC|C|--10-10-10-10-9-9--x2----12-12-12-12-9-9--x2----10-10-10-10-9-9---x2-------|
G|---------------------------------------------------------------------------|
C| chord diagramC|C|---------------------------------------------------------------------------|

D|---------------------------------------------------------------------------|
A|---------------------------------------------------------------------------|
F| chord diagramF|F|---------------------------------------------------------------------------|
C| chord diagramC|C|--14-14-14-14-9-9--x2------14-14-14-14-13-13--x2-------13~-----13~---------|
G|---------------------------------------------------------------------------|
C| chord diagramC|C|---------------------------------------------------------------------------|

Chorus:

D|---------------------------------------------------------------------------|
A|---------------------------------------------------------------------------|
F| chord diagramF|F|---------------------------------------------------------------------------|
C| chord diagramC|C|---7-7-7-7-7-7--7-7-7\5-5-5--5-5-5\3-3-3--3-3-3-2-7------------------------|
G|---7-7-7-7-7-7--7-7-7\5-5-5--5-5-5\3-3-3--3-3-3-2-7------------------------|
C| chord diagramC|C|---7-7-7-7-7-7--7-7-7\5-5-5--5-5-5\3-3-3--3-3-3-2-7------------------------|

D|---------------------------------------------------------------------------|
A|---------------------------------------------------------------------------|
F| chord diagramF|F|---------------------------------------------------------------------------|
C| chord diagramC|C|---7-7-7-7-7-7--7-7-7\5-5-5--5-5-5\3-3-3--3-3-3-2-7------------------------|
G|---7-7-7-7-7-7--7-7-7\5-5-5--5-5-5\3-3-3--3-3-3-2-7------------------------|
C| chord diagramC|C|---7-7-7-7-7-7--7-7-7\5-5-5--5-5-5\3-3-3--3-3-3-2-7------------------------|

D|---------------------------------------------------------------------------|
A|---------------------------------------------------------------------------|
F| chord diagramF|F|---------------------------------------------------------------------------|
C| chord diagramC|C|---7-7-7-7-7-7--7-7-7\5-5-5--5-5-5\3-3-3--3-3-3-2-7------------------------|
G|---7-7-7-7-7-7--7-7-7\5-5-5--5-5-5\3-3-3--3-3-3-2-7------------------------|
C| chord diagramC|C|---7-7-7-7-7-7--7-7-7\5-5-5--5-5-5\3-3-3--3-3-3-2-7------------------------|

D|---------------------------------------------------------------------------|
A|---------------------------------------------------------------------------|
F| chord diagramF|F|---------------------------------------------------------------------------|
C| chord diagramC|C|---7-7-7-7-7-7--7-7-7\5-5-5--5-5-5\3-3-3--3-3-3-2-7-------7-7-7-7-7-7------|
G|---7-7-7-7-7-7--7-7-7\5-5-5--5-5-5\3-3-3--3-3-3-2-7-------7-7-7-7-7-7------|
C| chord diagramC|C|---7-7-7-7-7-7--7-7-7\5-5-5--5-5-5\3-3-3--3-3-3-2-7-------7-7-7-7-7-7------|



*************************

\ - slide down
~ - vibrato

*************************

Ausländer tab

Rammstein guitar tabs for Ausländer "Ausländer" was the third single released from Rammstein's untitled 2019 album. A music video for "Ausländer" has also been released. These tabs will help you play "Ausländer" by Rammstein in their signature style!.

Other versions of Ausländer

AuslanderChords
Auslander (Ver. 2)Tabs

Almost there ...

Sign in to get your own page with links to favourite songs and more. You are just one click away...

Login with Facebook Login with Google