Guitar Tabs Explorer
Rammstein bass tabs for Asche zu asche

Asche Zu Asche bass tab


Be the first to rate

Asche Zu Asche bass tab by Rammstein

Bass tabs

Print
Album:Herzeleid
Tab by:till (joakim)


-------------------------------|
-------------------------------|
-------------------------------|
-3-000-5-000-6-00-5-0-3-000----|


x8 And here comes the bass solo.
---------------------------------------|
-5-------7-------8-----7----5----------|
-------7-------7-----7-----------------|
---0-0-----0-0-----0-----0----0-0------|



this is a nother type of the solo.
oliver used this verson of the solo on live aus berlin.

-0---------------------------------0---------|
---------------------------------------------|
----------12---------13------12--------------|
---0-0-12----0-0--12----0-12----0----0-0-----|


both of the solos is correct.

Comment this song and these bass tabs

Do you have corrections, comments on the bass tabs, thoughts about the song or a message to the author? Write them below.