Guitar Tabs Explorer
Rammstein guitar tabs for Amerika

Amerika tab


Be the first to rate

Amerika tab by Rammstein

Guitar tabs

Print

part 1
1|------------------------------------------------------------------|
2|------------------------------------------------------------------|
3|------------------------------------------------------------------|
4|0-2-0-3-2-5-------------------------------------------------------|
5|0-2-0-3-2-5-------------------------------------------------------|
6|0-2-0-3-2-5-------------------------------------------------------|

part 2
git. 1: listen to the song for the rythm, everything is palm mute
1|------------------------------------------------------------------|
2|------------------------------------------------------------------|
3|------------------------------------------------------------------|2x
4|0-2-2-2-2--2-2-2-2-2--2-2-2-0-0-2-2-2-2--2-2-2-2-2-5-5-0-0--------|
5|0-2-2-2-2--2-2-2-2-2--2-2-2-0-0-2-2-2-2--2-2-2-2-2-5-5-0-0--------|
6|0-2-2-2-2--2-2-2-2-2--2-2-2-0-0-2-2-2-2--2-2-2-2-2-5-5-0-0--------|

1|-----------------------------------------------------------------------|
2|-----------------------------------------------------------------------|
3|-----------------------------------------------------------------------|
4|0-2-2-2-2--2-2-2-2-2--2-2-2-2-4-4-4-4-4--4-4-4-4-4--4-4-4-4--0-2-2-2-2-|
5|0-2-2-2-2--2-2-2-2-2--2-2-2-2-4-4-4-4-4--4-4-4-4-4--4-4-4-4--0-2-2-2-2-|
6|0-2-2-2-2--2-2-2-2-2--2-2-2-2-4-4-4-4-4--4-4-4-4-4--4-4-4-4--0-2-2-2-2-|

------------------------------------------------------------------|
------------------------------------------------------------------|
------------------------------------------------------------------|
2-5-5-5-5--5-5-5-5-4-4-4-4-4--4-4-4-4-4--4-4-4-4------------------|1x
2-5-5-5-5--5-5-5-5-4-4-4-4-4--4-4-4-4-4--4-4-4-4------------------|
2-5-5-5-5--5-5-5-5-4-4-4-4-4--4-4-4-4-4--4-4-4-4------------------|

git. 2 clean
1|----------------------------------------------------------------|
2|----0------------0---------------------2--------------2---------|
3|--0------------0---------------------2--------------2-----------|
4|2------------2---------------------4--------------4-------------|
5|----------------------------------------------------------------|
6|----------------------------------------------------------------|

part 1
part 2
part 1

part 3
1|-----------------------------------------------------------------|
2|-----------------------------------------------------------------|
3|-----------------------------------------------------------------|2x
4|-----------------------------------------------------------------|
5|-----------------------------------------------------------------|
6|0-2-2-2-vb2-0-2-2-2-vb2-0-2-2-2-2-0-2-2-2-vb2-0-2-2-2-vb2-5-5-0-0|

play during piano part
Git. 1
1|---------------------------------------------------------------------|
2|---------------------------------------------------------------------|
3|---------------------------------------------------------------------|
4|3-7-2-2-3-7-2-2------------------------------------------------------|
5|3-7-2-2-3-7-2-2------------------------------------------------------|
6|3-7-2-2-3-7-2-2------------------------------------------------------|

Git. 2 listen to the song for the rythm
1|---------------------------------------------------------------------|
2|5-6-10-5-6-10-13-5---------------------------------------------------|
3|---------------------------------------------------------------------|
4|2-2--7-2-3--7-10-2---------------------------------------------------|
5|---------------------------------------------------------------------|
6|---------------------------------------------------------------------|

Other versions of Amerika

- AmerikaChords

Comment this song and these guitar tabs

Do you have corrections, comments on the guitar tabs, thoughts about the song or a message to the author? Write them below.