Log in

One click and you are in

Login with Facebook Login with Google

Why sign up and log in

Guitar Tabs Explorer
Rammstein chords for Adios

Guitar chords

Album: Mutter
tabbed by: Jeroen Pollentier

tuning: dropped D

Key = A chord diagramFF
[Intro:]
A chord diagramBb majorBb A chord diagramFF A chord diagramA augmentedA A chord diagramC majorC A chord diagramA augmentedA A chord diagramBb majorBb A chord diagramFF A chord diagramD MajorD

[Part 1:]

   A chord diagramBb majorBb A chord diagramC majorC  A chord diagramD MajorD			   A chord diagramD MajorD
e|-------------------------------|-------------------------|
A chord diagramBB|-------------------------------|-------------------------|
A chord diagramG+G|-------------------------------|-------------------------|
A chord diagramD MajorD|-8-10--12--12-12-12-12-12-12---|-12--12-12-12-12-12-12---|
A chord diagramA augmentedA|-8-10--12--12-12-12-12-12-12---|-12--12-12-12-12-12-12---|
A chord diagramD MajorD|-8-10--12--12-12-12-12-12-12---|-12--12-12-12-12-12-12---|
	    |____Palm muted___|	      |___Palm muted____|

   A chord diagramD MajorD
e|-------------------------------------|
A chord diagramBB|-------------------------------------|
A chord diagramG+G|-------------------------------------|
A chord diagramD MajorD|-12--12-12-12-12-12-12-12-12-12-12---|
A chord diagramA augmentedA|-12--12-12-12-12-12-12-12-12-12-12---|
A chord diagramD MajorD|-12--12-12-12-12-12-12-12-12-12-12---| repeat
      |__________Palm muted_________|


[Part 2:]

   A chord diagramBb majorBb A chord diagramC majorC  A chord diagramD MajorD
e|-----------|
A chord diagramBB|-----------|
A chord diagramG+G|-----------|
A chord diagramD MajorD|-8-10--12--|
A chord diagramA augmentedA|-8-10--12--|
A chord diagramD MajorD|-8-10--12--|

[acoustic part:]
A chord diagramBb majorBb A chord diagramFF A chord diagramA augmentedA A chord diagramC majorC A chord diagramA augmentedA A chord diagramBb majorBb A chord diagramFF A chord diagramD MajorD






[Chorus:]
  A chord diagramBb majorBb         A chord diagramFF          (A chord diagramG+G)  A chord diagramA augmentedA    A chord diagramC majorC  A chord diagramA augmentedA  (A chord diagramG+G) (A chord diagramFF)
|-----------------------------------------------|
|-----------------------------------------------|
|-----------------------------------------------|
|-8--8--8--8-3--3--3--3-(5)--7--7-10-7-(5)-(3)--|
|-8--8--8--8-3--3--3--3-(5)--7--7-10-7-(5)-(3)--|
|-8--8--8--8-3--3--3--3-(5)--7--7-10-7-(5)-(3)--|

  A chord diagramBb majorBb	     A chord diagramFF      	 A chord diagramD MajorD
|--------------------------|
|--------------------------|
|--------------------------|
|-8--8--8--8-3--3--3--3--0-|
|-8--8--8--8-3--3--3--3--0-|
|-8--8--8--8-3--3--3--3--0-|


[Solo:]

|------------------------------|
|------------------------------|
|------------------------------|
|-5-7-7--5-7-7--5-7-7-7--5-3-0-|
|------------------------------|
|------------------------------|

jeroenpollentier@hotmail.com
ⓘ Guitar chords for 'Adios' by Rammstein, an industrial metal band formed in 1994 from Berlin, Germany

Almost there ...

Sign in to get your own page with links to favourite songs and more. You are just one click away...

Login with Facebook Login with Google