Log in

One click and you are in

Login with Facebook Login with Google

Why sign up and log in

Guitar Tabs Explorer
Rainbows bass tabs for All night long

Bass tabs

Basstab by Jan Bjorklund, Finland;
jani_bjorklund@yahoo.se
You are welcome to request for basstabs!
Bienvenidos a pedirme transcripciones para el bajo!
Fingering and positions as suggested by TablEdit.

TablEdited by Jan Bjorklund for Wiljo

Tuning : E A D G 	Time Signature: 4/4

 |    |    |    tempo 130
|----------------------------------------|
|5-------------5-------------------------|
|----------------------------------------|
|----------------------------------------|

 |    |    |    |    |    |    |    |    |
|--------------------------------|----------------------------------------|
|--------------------------------|----------------------------------------|
|3---1---0-----------------------|----------------------------------------|
|------------3---1---------------|3---------------------------------------|

 |    |    |    |    |    |    |    |
|--------------------------------|--------------------------------|
|--------------------------------|--------------------------------|
|3---1---0-----------------------|--------------------------------|
|------------3---1---------------|3---3---3---3---3---3---3---3---|

 |    |    |    |    |    |    |    |
|--------------------------------|--------------------------------|
|--------------------------------|--------------------------------|
|--------------------------------|--------------------------------|
|3---3---3---3---3---3---1---3---|3---3---3---3---3---3---3---3---|

 |    |    |    |    |    |    |    |
|--------------------------------|--------------------------------|
|--------------------------------|--------------------------------|
|--------------------------------|--------------------------------|
|3---1h--3---3---3---3---1---3---|3---3---3---3---3---3---3---3---|

 |    |    |    |    |    |    |    |
|--------------------------------|--------------------------------|
|--------------------------------|--------------------------------|
|--------------------------------|--------------------------------|
|3---3---3---3---3---3---1---3---|3---3---3---3---3---3---3---3---|

 |    |    |    |    |    |    |    |
|--------------------------------|--------------------------------|
|--------------------------------|--------------------------------|
|1-------------------------------|1-------1-------1-------1-------|
|----1---3---3---3---3---4---5---|--------------------------------|

 |    |    |    |    |    |    |    |
|--------------------------------|--------------------------------|
|--------------------------------|------------------------3-------|
|1---------------1---1---1-------|--------------------3-----------|
|--------------------------------|1-------1-------1-----------1---|

 |    |    |    |    |    |    |    |
|--------------------------------|--------------------------------|
|------------------------3-------|--------------------------------|
|--------------------3-----------|6---------------6---6-----------|
|1-----------1---1---------------|------------------------6---8---|

 |    |    |    |    |    |    |    |
|--------------------------------|------------------------3-------|
|--------------------------------|--------------------3-----------|
|6---------------6---------------|1---------------1---------------|
|--------------------3---4---5---|--------------------------------|

 |    |    |    |    |    |    |    |
|--------------------------------|--------------------------------|
|--------------------------------|--------------------------------|
|--------------------------------|1---------------1-------1-------|
|1---1---1---1---1---1---1---1-1-|--------------------1-----------|

 |    |    |    |    |    |    |    |
|--------------------------------|--------------------------------|
|--------------------------------|--------------------------------|
|1---------------1-------1-------|--------------------------------|
|--------------------1-----------|1---------------1---1---1-------|

 |    |    |    |    |    |    |    |
|--------------------------------|--------------------------------|
|--------------------------------|--------------------------------|
|----------------------------1---|3---------------3---2---3---5---|
|1---------------1---1---4-------|--------------------------------|

 |    |    |    |    |    |    |    |
|--------------------------------|--------------------------------|
|--------------------------------|--------------------------------|
|6-----------5---6---------------|--------------------------------|
|------------------------3---4---|6-------6-------6-------6-------|

 |    |    |    |    |    |    |    |
|--------------------------------|--------------------------------|
|--------------------------------|--------------------------------|
|--------------------------------|--------------------------------|
|6---6---6---6---6---6---4---6---|8-------------------------------|

 |    |    |    |    |    |    |    |
|--------------------------------|--------------------------------|
|--------------------------------|--------------------------------|
|--------------------------------|--------------------------------|
|4-------------------------------|8-----------------------8/--3---|

 |    |    |    |    |    |    |    |
|--------------------------------|--------------------------------|
|--------------------------------|--------------------------------|
|--------------------------------|--------------------------------|
|1---1---1---1---1---1---1---1---|1---1---1---1---1---1---1---1---|

 |    |    |    |    |    |    |    |
|--------------------------------|--------------------------------|
|--------------------------------|--------------------------------|
|--------------------------------|--------------------------------|
|1---1---1---1---1---1---1---1---|1---1---1---1---1---1---1---1---|

 |    |    |    |    |    |    |    |
|--------------------------------|--------------------------------|
|--------------------------------|--------------------------------|
|--------------------------------|--------------------------------|
|3---3---3---3---3---3---3---3---|3---3-------3---3---3---1---3---|

 |    |    |    |    |    |    |    |
|--------------------------------|--------------------------------|
|--------------------------------|--------------------------------|
|--------------------------------|1-------------------------------|
|3---3---3---3---3---3---3---3---|----1-------3-------3---3---3---|

 |    |    |    |    |    |    |    |
|--------------------------------|--------------------------------|
|--------------------------------|--------------------------------|
|--------------------------------|--------------------------------|
|3---3---3---3---3---3---3---3---|3---3---3---3---3---3---1---3---|

 |    |    |    |    |    |    |    |
|--------------------------------|--------------------------------|
|--------------------------------|--------------------------------|
|--------------------------------|1-------------------------------|
|3---3---3---3---3---3---3---3---|----1-------3-------3---4---5---|

 |    |    |    |    |    |    |    |
|--------------------------------|--------------------------------|
|--------------------------------|--------------------------------|
|1---------------1-------1-------|1---------------1-------1-------|
|--------------------1-----------|--------------------1-----------|

 |    |    |    |    |    |    |    |
|--------------------------------|--------------------------------|
|--------------------------------|----------------1---0-----------|
|--------------------------------|------------------------3---1---|
|1---------------1---1---1-------|1---1---1-----------------------|

 |    |    |    |    |    |    |    |
|--------------------------------|--------------------------------|
|1-------1-------1---1-----------|1---------------1---1---1-------|
|------------------------1---3---|--------1-----------------------|
|--------------------------------|--------------------------------|

 |    |    |    |    |    |    |    |
|--------------------------------|--------------------------------|
|--------------------------------|--------------------------------|
|1---------------1---1---1-------|--------------------------------|
|--------------------------------|1-------1-------1---1---1-1-3/5-|

 |    |    |    |    |    |    |    |
|--------------------------------|--------------------------------|
|--------------------------------|--------------------------------|
|1---------------1-------1-------|1---------------1-------0-------|
|--------1-----------1-----------|--------1-------------------3---|

 |    |    |    |    |    |    |    |
|--------------------------------|--------------------------------|
|--------------------------------|--------------------------------|
|--------------------------------|------------------------0---3---|
|1-------1-------1---1---1-------|1-------1-------1---1-----------|

 |    |    |    |    |    |    |    |
|--------------------------------|--------------------------------|
|--------------------------------|--------------------------------|
|3-------3-------3-------3h--5---|6-------6-------6---------------|
|--------------------------------|--------------------3---4---5---|

 |    |    |    |    |    |    |    |
|--------------------------------|--------------------------------|
|--------------------------------|--------------------------------|
|--------------------------------|--------------------------------|
|6-------6-------6-------6-------|6---6---6---6---6---6---6---7---|

 |    |    |    |    |    |    |    |
|--------------------------------|--------------------------------|
|--------------------------------|6-------------------------------|
|--------------------------------|--------------------------------|
|8-------------------------------|--------------------------------|

 |    |    |    |    |    |    |    |
|--------------------------------|--------------------------------|
|--------------------------------|--------------------------------|
|--------------------------------|--------------------------------|
|8-------------------------------|1---1---1---1---1---1---1---1---|

 |    |    |    |    |    |    |    |
|--------------------------------|--------------------------------|
|--------------------------------|--------------------------------|
|--------------------------------|--------------------------------|
|1---1---1---1---1---1---1---1---|1---1---1---1---1---1---1---1---|

 |    |    |    |    |    |    |    |
|--------------------------------|--------------------------------|
|--------------------------------|--------------------------------|
|--------------------------------|--------------------------------|
|1---1---1---1---1---1---1---1---|3---3---3---3---3---3---3---3---|

 |    |    |    |    |    |    |    |
|--------------------------------|--------------------------------|
|--------------------------------|--------------------------------|
|--------------------------------|--------------------------------|
|3---3---3---3---3---3---1---3---|3---3---3---3---3---3---3---3---|

 |    |    |    |    |    |    |    |
|--------------------------------|--------------------------------|
|--------------------------------|--------------------------------|
|1-------------------------------|--------------------------------|
|----1-------3-------3---3---3---|3---3---3---3---3---3---3---3---|

 |    |    |    |    |    |    |    |
|--------------------------------|--------------------------------|
|--------------------------------|--------------------------------|
|--------------------------------|--------------------------------|
|3---3---3---3---3---3---1---3---|3---3---3---3---3---3---3---3---|

 |    |    |    |    |    |    |    |
|--------------------------------|--------------------------------|
|--------------------------------|--------------------------------|
|1-----------------------1---2---|3-------------------------------|
|----1-------3-------3-----------|--------------------------------|

 |    |    |    |    |    |    |    |
|--------------------------------|--------------------------------|
|--------------------------------|--------------------------------|
|--------------------------------|------------------------6h--8---|
|4-------------------------------|8-------------------------------|

 |    |    |    |    |    |    |    |
|--------------------------------|--------------------------------|
|6---------------------------6---|--------------------------------|
|------------------------6-------|--------------------------------|
|--------------------------------|8-----------------------8/------|

 |    |    |    |    |    |    |    |
|--------------------------------|--------------------------------|
|--------------------------------|--------------------------------|
|--------------------------------|------------------------3-------|
|4-------------------------------|1---1---1---1---1---1-------1---|

 |    |    |    |    |    |    |    |
|--------------------------------|--------------------------------|
|--------------------------------|--------------------------------|
|------------------------3-------|------------------------3-------|
|1---1---1---1---1---1-------1---|1---1---1h3-1---1---1-------1---|

 |    |    |    |    |    |    |    |
|--------------------------------|--------------------------------|
|--------------------------------|--------------------------------|
|----------------------------0---|--------------------------------|
|1---0---1---0---1---0---1h3-----|6---------------6---6---6-------|

 |    |    |    |    |    |    |    |
|--------------------------------|--------------------------------|
|----------------8-------8---6---|3-------------------------------|
|--------------------8-----------|--------------------------------|
|6-------------------------------|----------------1---------------|

 |    |    |    |    |    |    |    |
|--------------------------------|--------------------------------|
|--------------------3---1---0---|--------------------------------|
|--------------------------------|6---------------6---6-----------|
|1-------1-------1---------------|------------------------6---8---|

 |    |    |    |    |    |    |    |
|--------------------------------|--------------------------------|
|--------------------------------|--------------------------------|
|6---------------6---------------|--------------------------------|
|--------------------3---4---5---|6-------6-------6-------6-------|

 |    |    |    |    |    |    |    |
|--------------------------------|--------------------------------|
|--------3-----------3-----------|--------------------------------|
|----3-----------3---------------|--------------------------------|
|1-----------1-----------1-------|6---------------6---------------|

 |    |    |    |    |    |    |    |
|--------------------------------|--------------------------------|
|--------------------------------|------------------------3-------|
|--------------------------------|--------------------3-----------|
|6---------------6---6---6/------|1---------------1---------------|

 |    |    |    |    |    |    |    |
|--------------------------------|--------------------------------|
|------------------------3-------|--------------------------------|
|--------------------3-------3---|3-------3-------3-----------5---|
|1---1---1-------1---------------|--------------------------------|

 |    |    |    |    |    |    |    |
|--------------------------------|--------------------------------|
|--------------------------------|--------------------------------|
|6-------6-------6-------6-------|--------------------------------|
|--------------------------------|6-------6-------6-------6-------|

 |    |    |    |    |    |    |    |
|--------------------------------|--------------------------------|
|8-------------------------------|--------------------------------|
|----8---------------------------|--------------------------------|
|--------6---6-6-6---5---6---7---|8-------------------------------|

 |    |    |    |    |    |    |    |
|--------------------------------|--------------------------------|
|--------------------------------|--------------------------------|
|--------------------------------|3-----------5---6-------3-------|
|4-------------------------------|--------------------------------|

 |    |    |    |    |    |    |    |
|--------------------------------|--------------------------------|
|--------------------------------|--------------------------------|
|--------------------------------|--------------------------------|
|1---1---1---1---1---1---1---1---|1---1---1---1---1---1---1---1---|

 |    |    |    |    |    |    |    |
|--------------------------------|--------------------------------|
|--------------------------------|3-------1-------0---------------|
|--------------------------------|------------------------3---1---|
|1---1---1---1---1---1---1---1---|----1-------1-------------------|

 |    |    |    |    |    |    |    |
|--------------------------------|--------------------------------|
|--------------------------------|--------------------------------|
|--------------------------------|--------------------------------|
|3-------3---3---3---3---3---3---|3---3---3---3---3---3---1p2-3---|

 |    |    |    |    |    |    |    |
|--------------------------------|--------------------------------|
|--------------------------------|--------------------------------|
|--------------------------------|1-------------------------------|
|3---3---3---3---3---3---3---3---|----1-------3-------3---1---3---|

 |    |    |    |    |    |    |    |
|--------------------------------|--------------------------------|
|--------------------------------|--------------------------------|
|--------------------------------|------------------------6-------|
|3---3---3---3---3---3---3---3---|3---3---3---3---3---3-----------|

 |    |    |    |    |    |    |    |
|--------------------------------|--------------------------------|
|--------------------------------|--------------------------------|
|--------------------------------|1-------------------------------|
|3---3---3---3---3---3---3---3---|----1-------3-------3---1---3---|

 |    |    |    |    |    |    |    |
|--------------------------------|--------------------------------|
|--------------------------------|--------------------------------|
|--------------------------------|--------------------------------|
|3---3---3---3---3---3---3---3---|3---3---3---3---3---3---1---3---|

 |    |    |    |    |    |    |    |
|--------------------------------|--------------------------------|
|--------------------------------|--------------------------------|
|--------------------------------|1-------------------------------|
|3---3---3---3---3-------3---3---|----1-------3-------3---1---3---|

 |    |    |    |
|--------------------------------|
|--------------------------------|
|--------------------------------|
|3---3---3---3---3---3---3---3---|

Almost there ...

Sign in to get your own page with links to favourite songs and more. You are just one click away...

Login with Facebook Login with Google