Search tabs and chords

Search for song, artist or band

Log in

One click and you are in

Login with Facebook Login with Google

Why sign up and log in

Guitar Tabs Explorer
Rainbow bass tabs for Stone cold

Bass tabs

  • Tuning: Standard tuning
  • Difficulty: Novice
-------------------------------------------------------------------
                     Artist - Rainbow
                    ******************
                    Song - Stone Cold
                   *******************
          Album - Straight Between The Eyes (1982)
         ******************************************
                   Tabbed By - Ayreon77
                  **********************
-------------------------------------------------------------------
Tuning = Standard
H = Harmonic


INTRO
******
G|---------|---------|---------|--H--|
D|---------|---------|---------|--7--|
A|---------|---------|---------|-----|
E|-5~~-5-5-|-5~~-5-5-|-5~~-5-5-|-----|

00:13
G|---------|---------|---------|---------|
D|---------|---------|---------|---------|
A|---------|---------|---------|---------|
E|-5~~-5-5-|-5~~-5-5-|-5~~-5-5-|-3~~-5-5-|


G|---------|---------|---------|-----------|
D|---------|---------|---------|-----------|
A|---------|---------|---------|--------s--|
E|-5~~-5-5-|-5~~-5-5-|-5~~-5-5-|-5-3~~-3\5-|

------------------------
00:31
VERSE 1
********
G|---------|---------|---------|---------|
D|---------|---------|---------|---------|
A|---------|---------|---------|---------|
E|-5~~-5-5-|-5~~-5-5-|-5~~-5-5-|-3~~-3-3-|


G|---------|---------|---------|---------|
D|---------|---------|---------|---------|
A|---------|---------|---------|---------|
E|-5~~-5-5-|-5~~-5-5-|-5~~-5-5-|-3~~-3-3-|

00:48
G|---------|---------|---------|-------------|
D|---------|---------|---------|-------------|
A|---------|---------|---------|-------------|
E|-5~~-5-5-|-5~~-5-5-|-5-5~~-5-|-5-3~~-3-3-3-|


G|---------|---------|---------|---------|
D|---------|---------|---------|---------|
A|---------|---------|---------|---------|
E|-5~~-5-5-|-5~~-5-5-|-5~~-5-5-|-3~~~~~~-|


------------------------
01:07
PRE CHORUS
***********
G|--------------|-----------|-----------------------|
D|--------------|--p--------|-----------------------|
A|-3~~----5~~-5-|-5-3-------|-3~~----5~~-5--5-5-5-5-|
E|-----3--------|-----5-3-5-|-----3-----------------|


G|--------------|-----------|--------------|
D|--------------|--p--------|--------------|
A|-3~~----5~~-5-|-5-3-------|-3~~----5~~~~-|
E|-----3--------|-----5-3-5-|-----3--------|


------------------------
01:24
CHORUS
*******
G|-----------------|-----------------|-----------------|-----------------|
D|-----------------|-----------------|-----------------|-----------------|
A|-----------------|-----------------|-----------------|-----------------|
E|-5-5-5-5-5-5-5-5-|-5-5-5-5-5-5-5-5-|-5-5-5-5-5-5-5-5-|-1-1-1-1-1-1-1-1-|X2


------------------------
01:41
VERSE 2
********
G|---------|---------|---------|---------|
D|---------|---------|---------|---------|
A|---------|---------|---------|---------|
E|-5~~-5-5-|-5~~-5-5-|-5~~-5-5-|-3~~-3-3-|


G|---------|---------|---------|---------|
D|---------|---------|---------|---------|
A|---------|---------|---------|---------|
E|-5~~-5-5-|-5~~-5-5-|-5~~-5-5-|-3~~-3-3-|

01:58
G|---------|---------|---------|-------------|
D|---------|---------|---------|-------------|
A|---------|---------|---------|-------------|
E|-5~~-5-5-|-5~~-5-5-|-5~~-5-5-|-5-3~~-3-3-3-|


G|---------|---------|---------|---------|
D|---------|---------|---------|---------|
A|---------|---------|---------|---------|
E|-5~~-5-5-|-5~~-5-5-|-5~~-5-5-|-3~~~~~~-|


------------------------
02:16
PRE CHORUS
***********
G|--------------|-----------|-----------------------|
D|--------------|--p--------|-----------------------|
A|-3~~----5~~-5-|-5-3-------|-3~~----5~~-5--5-5-5-5-|
E|-----3--------|-----5-3-5-|-----3-----------------|


G|--------------|-----------|--------------|
D|--------------|--p--------|--------------|
A|-3~~----5~~-5-|-5-3-------|-3~~----5~~~~-|
E|-----3--------|-----5-3-5-|-----3--------|


------------------------
02:32
CHORUS
*******
G|-----------------|-----------------|-----------------|-----------------|
D|-----------------|-----------------|-----------------|-----------------|
A|-----------------|-----------------|-----------------|-----------------|
E|-5-5-5-5-5-5-5-5-|-5-5-5-5-5-5-5-5-|-5-5-5-5-5-5-5-5-|-1-1-1-1-1-1-1-1-|


G|-----------------|-----------------|-----------------|------------|
D|-----------------|-----------------|-----------------|------------|
A|-----------------|-----------------|-----------------|------------|
E|-5-5-5-5-5-5-5-5-|-5-5-5-5-5-5-5-5-|-5-5-5-5-5-5-5-5-|-1---1---1--|


------------------------
02:51
SOLO
*****
G|---------|---------------|---------|-------------|
D|---------|---------------|---------|-------------|
A|---------|---------------|---------|-------------|
E|-5~~-5-5-|-3-1~~-3~~-1-3-|-5~~-5-5-|-5-3~~-1-1-1-|


G|-------------|-----------------|-----------|-----------------|
D|-------------|-----------------|-----------|-----------------|
A|--s----------|-----------------|-----------|-----------------|
E|-1\5~~-5-5-5-|-5-1-1--1-3-3--3-|-5~~-5-5-5-|-5-3~~-1-1-1-1-1-|

03:08
G|------------|------------------|-----------|--------------|
D|------------|------------------|-----------|--------------|
A|------------|------------------|-----------|--------------|
E|-5-5--5-5-5-|-5-1-1--3-3-3-3~~-|-5~~-5-5-5-|-5-3-3--1-1-1-|

03:16
G|-------------|------------------|-----------|------------------|
D|-------------|------------------|-----------|------------------|
A|--s----------|------------------|-----------|------------------|
E|-1\5~~-5-5-5-|-5-1-1--3-3-3-3~~-|-5~~-5-5-5-|-5-3-3--1-1-1-1~~-|


------------------------
03:25
PRE CHORUS
***********
G|--------------|-----------|---------------------------------------|
D|--------------|--p--------|-------------s-------------------------|
A|-3~~----5~~-5-|-5-3-------|-3~~----5~~-5\-17-17-17-17-17-17-17-17-|
E|-----3--------|-----5-3-5-|-----3---------------------------------|


G|--------------|-----------|---------------------|
D|--------------|--p--------|---------------------|
A|-3~~----5~~-5-|-5-3-------|-3~~----5~~----------|
E|-----3--------|-----5-3-5-|-----3-------0-1-3-3-|


------------------------
03:42
CHORUS
*******             Repeat this and fade out............................
G|-----------------|-----------------|-----------------|-----------------|
D|-----------------|-----------------|-----------------|-----------------|
A|-----------------|-----------------|-----------------|-----------------|
E|-5-5-5-5-5-5-5-5-|-5-5-5-5-5-5-5-5-|-5-5-5-5-5-5-5-5-|-1-1-1-1-1-1-1-1-|X12




ENJOY.............

Stone Cold bass tab

Rainbow bass tabs for Stone cold From there Album, Straight Between The Eyes (1982)

Almost there ...

Sign in to get your own page with links to favourite songs and more. You are just one click away...

Login with Facebook Login with Google