Log in

One click and you are in

Login with Facebook Login with Google

Why sign up and log in

Guitar Tabs Explorer
Rainbow tabs for Light in the black

Guitar tabs with lyrics

Title: Light in  the Black
Album: Rising (1976)

tworth87@yahoo.com

() are for a light upstroke, not harmonic

------------------------------------------------------------------------------
------------------------------------------------------------------------------
--------------0------0--------------------------------------------------------
--xDrumsx---2---4-2----h4p2-2-2h4p2--------------------------------------------
------------------------------------------------------------------------------
------------------------------------------------------------------------------

           Main riff 4 times for intro then . . .
------------------------------------------------------------------------------
------------------------------------------------------------------------------
---0--------------------------------------------------------------------------
-------4--2--0----------------------------------------------------------------
----------------3--2---0------------------------------------------------------
-0---0--0--0--0--0---0---3p2p0------------------------------------------------
 break A chord diagramA augmentedA fast


------------------------------------------------------------------------------
------------------------------------------------------------------------------
------------------------------------------------------------------------------
------------------------------------------------------------------------------
--5-5-5-5-5-5-5-5-5-5-5-5-4/5-5------------------------------------------------
------------------------------------------------------------------------------
 verse A(play this then Main riff) * 2

------------------------------------------------------------------------------
-----------------------------------------------------------------------------
-----------------------------(5)-----------------------------------------------
-----------------------------(5)----------------------------------------------
--3-3-3-3-3-3-2/3-3-3-3-3-3-2/3-3------------------------------------------------
------------------------------------------------------------------------------
 verse A chord diagramBB (play this then Main riff) * 2
Richie throws the 5~s in occasionally


------------------------------------------------------------------------------
------------------------------------------------------------------------------
----5-4-2--5p4-2-2-2h4p2-----5-4-2--5p4-2-2-2---------------------------------
-----------------------------------------------------------------------------
--0------------------------0---------------------------------------------------
------------------------------------------------------------------------------
then this

------------------------------|-----------------------------------------------
------------------------------|-----------------------------------------------
--------5--(5)------4--(4)----|------5--(5)------7-------7-----7\--------------
--------5--(5)------4--(4)----|------5--(5)------7-------7-----7\--------------
----2/3-3---3---3\2-2---------|--2/3-3-------2/3-5-------5-----5\--------------
------------------------------|-----------------------------------------------
   2X                            3rd time


then back to main riff X 4 w/ break A chord diagramA augmentedA


------------------------------------------------------------------------------
------------------------------------------------------------------------------
--------9--(9)----------------------------------------------------------------
--------9--(9)----------------------------------------------------------------
---7----7----------------------------------------------------------------------
------------------------------------------------------------------------------
 leads into keyboard solo? 2X


------------------------------------------------------------------------------
------------------------------------------------------------------------------
---------------------------------------------------5---5-----------------------
---------------------------------------------------5---5----------------------
---------------------------------------------------3---3-----------------------
-3/5-5-5-5-5-5-5-5-5-5-5-5-3-3-3-3-3/5-5-5-5-5-5-------------------------------
initial backing to keyboard solo, follow bass

then break backing near end of keyboard solo

then guitar solo - not tabbed

after solo go back to main riff/break A, then the
verses A, A chord diagramBB again

here is the ending:


Main riff X4

-----------------------------------------7------7------------------------
------------------------------------------10-8---10-8-8--8-7-------------
----------------------7-6---7-6------6-----------------------------------
-9-7----9-7------7--------9-----9-9-9-9----------------------------------
-----10-----10-10-10----------------------------------------------------
-----------------------------------------------------------------------
double main riff with something like this, last 3
times


------------------------------------------------------------------------------
------------------------------------------6-7-8-9-10-11-12-----------\--------
---------------5-6-7-8-9-10-11------7-8-9----------------------------\--------
-----4-5-7--9------------------9-10----------------------------------\-------
--7------------------------------------------------------------------\-------
------------------------------------------------------------------------------
this is not exactly right

------------------------------------------------------------------------------
------------------------------------------------------------------------------
------------------------------------------------------------------------------
--2~----------------------------2-x-------------------------------------------
--2~----------------------------2-x-------------------------------------------
--0~----------------------------0-x-------------------------------------------

coda

Almost there ...

Sign in to get your own page with links to favourite songs and more. You are just one click away...

Login with Facebook Login with Google