Log in

One click and you are in

Login with Facebook Login with Google

Why sign up and log in

Guitar Tabs Explorer
Rage Against The Machine bass tabs for The ghost of tom joad

The Ghost Of Tom Joad bass tab - Rage Against The Machine

Rage Against The Machine bass tabs for The ghost of tom joad

Bass tabs

Album: (cd single)

Instrument: Bass

Tuning: D,a,d,g

Transcribed and Submitted by: CHRISTOPHER EMRY ('homegrown')

(> means to slide down the string)

Raging Riff =
g------------------------------------------
d------------------------------------------
a------5--3-----0--------3--0--3--5--------
D---0--------5-----3--0--------------------

Awesome Riff =
g------------------------------------------
d------------------------------------------
a---5>---3-----0--3------------------------
D-----------5------------------------------

Badass Riff =
g------------------------------------------
d------------------------------------------
a---5>--5>--5>---3-----0--3----------------
D-------------------5----------------------

++++++++ PLAY IN THIS ORDER +++++++++

raging riff....4 times and end and hold a low open D string
awesome riff...16 times
raging riff....4 times and then hold a low D again
badass riff....4 times
awesome riff...16 times
raging riff....4 times and then hold a low D again
badass riff....4 times
awesome riff...8 times then PALM MUTE A LOW { D } STRING TILL THE
raging riff....8 times and finally hold a low D for the last time

Almost there ...

Sign in to get your own page with links to favourite songs and more. You are just one click away...

Login with Facebook Login with Google