Log in

One click and you are in

Login with Facebook Login with Google

Why sign up and log in

Guitar Tabs Explorer
Rage Against The Machine bass tabs for Testify

Bass tabs

G-------------------------------------------------------
D-------------------------------------------------------
A-5-5-5-5-5-5-5-5-5-5-5-5-5-5-5-5^---------
D-------------------------------------------------------
chorus:
G-----------------------------------------------------------------
D--------------------------------------------------------------6-
A--------------3-----5-3---------------------0-3---5-3-------
D-0---3-5-0-----0-------0-5-3-0---3-5-0-----0-------0---


verse:
G-----------------------------------------------
D-----------------------------------------------
A----------------------------------------8-10-
D-12/-------------12/0/12---12/0--------

interlude:
G----------------------------------------------------------------------
D----------------------------------------------------------------------
A----------------------------0-3-----5-3----------------------------
D-12/-------0-5-3-12/--------0---------12/-------0-5-3-12/-

G---------------------
D---------------------
A---0-3-----5-3-5-
D---------0----------

\"who controls\" part:
G-----------------------
D-3---------------------
A--------------3-3-----
D--------------------0--


ending:
G-----------------------
D-----------------------
A-5---5---5---5^------
D-----------------------

By Jamie Robson

_________________________________________________________________

Other versions of Testify

Testify (Ver. 2)Bass tabs

Almost there ...

Sign in to get your own page with links to favourite songs and more. You are just one click away...

Login with Facebook Login with Google