Log in

One click and you are in

Login with Facebook Login with Google

Why sign up and log in

Guitar Tabs Explorer
Rage Against The Machine guitar tabs for Sleep now in the fire

Sleep Now In The Fire tab by Rage Against The Machine

Rage Against The Machine guitar tabs for Sleep now in the fire

Guitar tabs

Main Riff with distortion
e|---------------------------------------------------------------------|
B|---------------------------------------------------7b8-7-5-7-5-------|
G|---------5b¼--------------5b¼--------------5b¼---5-7b8-7-5-7-5-------|
D|-7-7-5-7-----7-7--7-7-5-7-----7-7--7-7-5-7-----7-5-7b8-7-5-7-5-7p5-7-|
A|-0-0-0-0-----0-0--0-0-0-0-----0-0--0-0-0-0-----0-0---------0---0---0-|
E|---------------------------------------------------------------------|
Final bend can just be single string bends if your lazy, but it doesn't sound as good.


Verse
I got this from watching a live performance. Play this clean.
e|---------------------------------------------------------------------|
B|---------------------------------------------------------------------|
G|-----17----------17--------------------------------------------------|
D|-------------------------and so on-----------------------------------|
A|-15-----------15-----------------------------------------------------|
E|-0------------0------------------------------------------------------|


Solo.
This solo isn't really something you can tab, what Tom does is he gets feedback, toggles
toggleswitch and pulls up on his whammy bar to adjust the tone.

THE END

Other versions of Sleep Now In The Fire

Sleep Now in The FireChords

↓ Add and view comments below ↓

What do you think about this song and these tabs?

Add your comments, questions, rant or a thumbs up below.

Almost there ...

Sign in to get your own page with links to favourite songs and more. You are just one click away...

Login with Facebook Login with Google