Log in

One click and you are in

Login with Facebook Login with Google

Why sign up and log in

Guitar Tabs Explorer
Rage Against The Machine tabs for No shelter

Guitar tabs

you'll find this on the battle of mexico city DVD/video


Intro/Chorus
E--------------------------------------XXXXXXXXXXXXXXXXXXXXX
B--------------------------------------XXXXXXXXXXXXXXXXXXXXX
G---5--7----------------10-------5--7--XXXXXXXXXXXXXXXXXXXXX
D---5--7----------------10-------5--7--XXXXXXXXXXXXXXXXXXXXX
A---3--5-----------------8-------3--5--XXXXXXXXXXXXXXXXXXXXX
E-----------------------------------------------------------



Verse-Use a wah wah or it wont sound right, try to depress on every second

note
E------------------------------------------
B----------------------------------------
G------------------------------------------
D------------------------------------------
A-3-3-5---3-5-3----------------------------
E------------------------------------------


solo-

E------just bend at 16th using a wah and something else --
B---------------------------------------------------------
G---------------------------------------------------------
D---------------------------------------------------------
A---------------------------------------------------------
E---------------------------------------------------------

this is my own work

Iain


Group: Rage Against the Machine
Album: Renegades

Iain had it right, I think, but he left out the last riff.
So here it is


Tuning: Drop A chord diagramD MajorD

|------------------------------|
|------------------------------|
o------------------------------o
o---------------3--------------o
|------3----------5-3-5--------|
|--0------3--0-----------3^-5--|   repeat over and over and over^Å



_________________________________________________________________
Join the world^Òs largest e-mail service with MSN Hotmail.
http://www.hotmail.com

Almost there ...

Sign in to get your own page with links to favourite songs and more. You are just one click away...

Login with Facebook Login with Google