Log in

One click and you are in

Login with Facebook Login with Google

Why sign up and log in

Guitar Tabs Explorer
Rage Against The Machine guitar tabs for Know your enemy

Know Your Enemy tab by Rage Against The Machine

Rage Against The Machine guitar tabs for Know your enemy

Guitar tabs

Band: Rage Against The Machine
Album: Rage Against The Machine


Intro:

I'm not 100% sure of the intro, but i think it's played this way....

e--------------------------------------------------------------------
b------------7---------------9-7-------------7-----------------------
g--9-7-9-7-9-7-9-7-9-7-9-7-9-9-7-7-9-7-9-7-9-7-9-7-9-7-7-7-7-7-7-7-8-
d--9-7-9-7-9---9-7-9-7-9-7-9-----7-9-7-9-7-9---9-7-9-7-7-7-7-7-7-7-8-
a--------------------------------------------------------------------
e--------------------------------------------------------------------
Chorus:

Play this two times....

e--------------------------------------------------------------------
b--------------------------------------------------------------------
g-----------------------------2----------------------------2---------
d-2-----------2-----------5-4-2--2-----------2---6-6--4-4--2--2------
a-2-4-4-4-7-4-2-4-4-4-4-4-3-2-0--2-4-4-4-7-4-2-4-4-4--2-2--0--2------
e-0-2-2-2-5-2-0-2-2-2-2-2--------0-2-2-2-5-2-0-2--------------0------


...the third time you play this

e--------------------------------------------------------------------
b--------------------------------------------------------------------
g-----------------------------2----------------------------2---------
d-2-----------2-----------5-4-2--2-----------2---6-6--4-4--2---------
a-2-4-4-4-7-4-2-4-4-4-4-4-3-2-0--2-4-4-4-7-4-2-4-4-4--2-2--0---------
e-0-2-2-2-5-2-0-2-2-2-2-2--------0-2-2-2-5-2-0-2---------------------


Verse:


e--------------------------------------------------------------------
b--------------------------------------------------------------------
g--------------------------------------------------------------------
d--4-----------------2-3-4-------------------------------------------
a--------------2-3-4----------------2-3-2-0--------------------------
e------2-0-2-5-------------2-0-2-5----------2------------------------


Bridge:

After the second verse this comes....."I've got no patience now..."


e---------------------2-----------------------------------------------
b---------------------2-----------------------------------------------
g---------------------2-----------------------------------------------
d---------------------0--------------------5--4-----------------------
a--4---4---4---4---4----4---4---4---4---4--3--2--3--------------------
e--02p-02p-02p-02p-0----02p-02p-02p-02p-0--------1--------------------



Intro

Chorus

Verse

Chorus

Verse

Bridge

Chorus

Almost there ...

Sign in to get your own page with links to favourite songs and more. You are just one click away...

Login with Facebook Login with Google