Search tabs and chords

Browse bands and artists

A B C D E F G H I J K L M N O P Q R S T U V W X Y Z #

Log in

[ Register here | Forgot password ]

Guitar Tabs Explorer
Print

Killing In The Name tab by Rage Against The Machine

Guitar tabs with lyrics

Tom Morello is the man! so I tried to write down all the little notes was missing in the previous tab. I also corrected a few rhythms and the solo, which sounds higher than the one i found in that tab.

  • Tuning: D Tuning
Tuning: dropped D ( D A D G B E )


 INTRO
 |---------|
 |---------|
 |-7-7-7-7-|
 |-7-7-7-7-|
 |-5-5-5-5-|
 |-0-0-0-0-|
   with flanger

 FILL A
 |----|
 |----|
 |-8~-|
 |----|
 |----|
 |----|
   crescendo


 FIGURE A       1,2,3   4
 |-------------|-------|----------|
 |-------------|-------|----------|
 |-------------|-11-12-|-12b13r12-|
 |-------11-12-|-------|----------|
 |-------------|-------|----------|
 |-0-0-0-------|-------|----------|

 FIGURE B 1,2,3   4
 |-------|-------|---|
 |-------|-------|---|
 |-------|-8-8-8-|-8-|
 |-------|-8-8-8-|-8-|
 |-0-0-0-|-6-6-6-|-6-|
 |-0-0-0-|-------|---|

 VERSE
 |-------------------------|
 |-------------------------|
 |-------------------------|
 |-----------3h4-----------|
 |-0-3h5-x-x-----5-0-2h3-2-|
 |-0---------------0-2h3-2-|


 FILL B
 |-------------------------------|
 |-------------------------3-5b6-|
 |---------------------2-5-------|
 |-----------3h4---3-5-----------|
 |-0-3h5-x-x-----5---------------|
 |-0-----------------------------|


 CHORUS                                 1             2
 |-------------------------------------|-------------|-----------------|
 |-------------------------------------|-------------|-----------------|
 |-------------------------------------|-------------|-----------------|
 |-----------9-----------8-----------7-|---2h3p2h3-2-|-5-5-5-5-5-5-5-5-|
 |-0-3h5-x-x---0-3h5-x-x---0-3h5-x-x---|-0-2h3p2h3-2-|-3-3-3-3-3-3-3-3-|
 |-0-----------0-----------0-----------|-0-2h3p2h3-2-|-----------------|
                                                       PM.............


 RIFF A
 |--------|
 |--------|
 |-7-7--7-|
 |-x-x--x-|
 |-5-5--5-|
 |-0-0--0-|


 RIFF B
 |---------------------------|
 |---------------------------|
 |-7-7-x-7-x-x-x-x-x-x-x-x-x-|
 |-x-x-x-x-x-x-x-x-x-x-x-x-x-|
 |-5-5-x-5-x-x-x-x-x-x-x-x-x-|
 |-0-0-x-0-x-x-x-x-x-x-x-x-x-|


 RIFF C     1,2,3               4
 |---------|-------------------|-/10=\-|
 |---------|-------------------|-------|
 |-7-7-x-7-|-x-x-x-x-x---------|-------|
 |-x-x-x-x-|-x-x-x-x-x---------|-------|
 |-5-5-x-5-|-x-x-x-x-x-5-5\1/5-|-------|
 |-0-0-x-0-|-x-x-x-x-x---------|-------|

 RIFF D
 |-----------------------|
 |-----------------------|
 |-7-7--x-7--x-7---------|
 |-x-x--x-x--x-x---3-5---|
 |-5-5--x-5--x-5---3-5-3-|
 |-0-0--x-0--x-0-0-3-5---|


 SOLO                                            1        2
 |-20=-----17=-----15=-----13=-----10=----8=----|-/17h19-|-/20h22-|
 |----------------------------------------------|--------|--------|
 |-----17=-----14=-----12=-----10=-----7=----5=-|--------|--------|
 |----------------------------------------------|--------|--------|
 |----------------------------------------------|--------|--------|
 |----------------------------------------------|--------|--------|
                                                   trill    trill

 |-/20h22\-/20h22\-----------------/20b22\-/22b24\-/14b16~-|
 |-----------------/20h22\-/20h22\-------------------------|
 |---------------------------------------------------------|
 |---------------------------------------------------------|
 |---------------------------------------------------------|
 |---------------------------------------------------------|
    trill   trill   trill   trill


 INTERLUDE
 |---------------------------------------------------|
 |---------------------------------------------------|
 |-7=/9=/10=/12=/14=/15=/17=-------------------------|
 |-x=/x=/-x=/-x=/-x=/-x=/-x=-------------------------|
 |-5=/7=/-8=/10=/12=/13=/15=-/17=\-/17=\-/17=\-/17=\-|
 |---------------------------------------------------|


 FILL C
 |--8--8---8--8--8--8---8--8--8--8-|
 |-10-10--10-10-10-10--10-10-10-10-|
 |-10-10--10-10-10-10--10-10-10-10-|
 |-10-10--10-10-10-10--10-10-10-10-|
 |--8--8---8--8--8--8---8--8--8--8-|
 |---------------------------------|
   funky..........................


 OUTRO
 |----------------|
 |----------------|
 |-7=-------8-8-8-|
 |-7=-0-0-0-8-8-8-|
 |-5=-0-0-0-6-6-6-|
 |-0=-0-0-0-------|


 ( h hammer-on ,
   p pull-off ,
   B bend ,
   r release ,
   ~ vibrato ,
   / slide-up ,
   \ slide-down ,
   = tremolo-picking ,
   x muted-strings ,
   PM palm-muting )


---------------------------------------------------------------------------
Song structure:


Intro
FILL A
FIGURE A x2
FIGURE B

Verse X4
VERSE x8 (PM)
Chorus
RIFF A x4
RIFF B x4
RIFF C
RIFF D x8

Verse X4
VERSE x8 (PM)  | 4th time substitute with FILL B
Chorus
RIFF A x4
RIFF B x4
RIFF C
RIFF D x8

RIFF D x8  | w/ SOLO

Interlude
RIFF D x8
RIFF D x4  | w/ FILL C
Outro

Other versions of Killing In The Name

Killing in The Name (Ver. 2)Tabs

Comments