Log in

One click and you are in

Login with Facebook Login with Google

Why sign up and log in

Guitar Tabs Explorer
Rage Against The Machine chords for In my eyes

In My Eyes chords by Rage Against The Machine

Rage Against The Machine chords for In my eyes

Guitar chords

Rage Against The Machine
In My Eyes
a cover of the Minor Threat song
from the album Renegades, 2000
Tabbed by: Fish A chord diagramC majorC (moshpitcow@usa.net)
------------------------------------------------------------------------------

This tab wasn't too difficult, because Rage barely messed with the song at
all. Listen to the CD for the exact picking patterns. Great song. Best played
at ear-melting volume.
Intro:

E---------------------------
B---------------------------
G-4---3---2-----2-----4-----
D-2---1---0--2--0--2--2-----
A------------0-----0--------
E---------------------------


Verse:

Play this with just a little palm muting.

E---------------------------
B---------------------------
G---------------------------
D--5-5-5-5-5-5-5------------
A--5-5-5-5-5-5-5------------
E--3-3-3-3-3-3-3------------

Repeat 3 times, then play:

E---------------------------
B---------------------------
G--5--2--8-----10--10-------
D--5--2--8--8--10--10-------
A--3--0--6--8--8---8--------
E-----------6---------------


Chorus:

E---------------------------
B---------------------------
G--5--7---5--7--2--4--------
D--5--7---5--7--2--4--------
A--3--5---3--5--0--2--------
E---------------------------

Repeat 4 times, then play this 3 times:

E-----------------------------------
B-----------------------------------
G-------------------7-7-7-7-7-7-7-7-
D---2-2-2-2-2-2-2-2-7-7-7-7-7-7-7-7-
A---2-2-2-2-2-2-2-2-5-5-5-5-5-5-5-5-
E---0-0-0-0-0-0-0-0-----------------

followed by this:

E---------------------
B---------------------
G-------------------4-
D---2-2-2-2-2-2-2-2-5-
A---2-2-2-2-2-2-2-2-5-
E---0-0-0-0-0-0-0-0-3-

End the song with this:

E---------------------------
B---------------------------
G--5--2--8-----10--10--10---
D--5--2--8--8--10--10--10---
A--3--0--6--8--8---8---8----
E-----------6---------------


Send your abuse to:

Mail me:

moshpitcow@usa.net

Or find me as Seth_Putnam or Tom_Morello on the ArtistDIRECT IRC
server: 209.216.207.245.


(Oh, and if If you figure out the solo to "Down On The Street" and "I'm
Housin'", I will worship you for ever if you send it to me).

Almost there ...

Sign in to get your own page with links to favourite songs and more. You are just one click away...

Login with Facebook Login with Google