Log in

One click and you are in

Login with Facebook Login with Google

Why sign up and log in

Guitar Tabs Explorer
Rage Against The Machine bass tabs for Guerrilla radio

Guerrilla Radio bass tab by Rage Against The Machine

Rage Against The Machine bass tabs for Guerrilla radio

Bass tabs with lyrics

Album: The Battle of Los Angeles
Bassist: Timmy C, Tim Bob, Y Tim K, or whatever he calls himself now.
Tabbed By: ratm2432
Standard Tuning: EADG

This song is very easy, listen to the song for timing and structure, etc.
Intro
G:0000000000000000--------|
D:------------------------|
A:------------------------| Play a bunch of times
E:------------------------|


Riff 1. (also chorus)
G:-------------------------|
D:-------------------------|
A:--------------0-2--------|
E:0-2-2-0-2-0-2------------|


Riff 2.
G:2---22---44---55--------|
D:------------------------|
A:------------------------|
E:2-----------------------|


Outro
G:------------------------|
D:------------------------|
A:------9-----------------|
E:0-2-0-------------------|

The song structure is something like this

 1. Intro
 2. riff 1
 3. riff 2
 4. chorus (aka riff 1)
 5. riff 2
 6. chorus
 7. Tom's Solo (Play riff 1 when drums pick up again)
 8. Outro (After Zack says "...What better place than here, what better time than now)

Almost there ...

Sign in to get your own page with links to favourite songs and more. You are just one click away...

Login with Facebook Login with Google