Log in

One click and you are in

Login with Facebook Login with Google

Why sign up and log in

Guitar Tabs Explorer
Rage Against The Machine tabs for Bulls on parade

Guitar tabs with lyrics

BULLS ON PARADE
RAGE AGIANST THE MACHINE
from:EVIL EMPIRE

INTRO
(dist. whammy pedal)
=20

||-----------------------------------------------------|
||-----------------------------------------------------|
||-----------------------------------------------------|
||---4---------4----4---------4----4---------4---------|
||-----------------------------------------------------|
||--------2--------------2--------------2---------2----|


(wah-wah)

      A chord diagramF#5F#5
||----------------------------------------------------------------------
||----------------------------------------------------------------------
||----------------------------------------------------------------------
||----------------------------------------------------------------------
||----4----4----x--x----4----4----x--x--x--x--x--x----4----4----x--x----
||----2----2----x--x----2----2----x--x--x--x--x--x----2----2----x--x----


  ----------------------------------|
  ----------------------------------|
  ----------------------------------|
  ----------------------------------|
  ----4----4----x--x--x--x--x--x----|
  ----2----2----x--x--x--x--x--x----|

||-------------------------------------------------|------------------------=
-|
||-------------------------------------------------|------------------------=
-|
||-------------------------------------------------|------------------------=
-|
||-------------------------------------------------|------------------------=
-|
||-----------------0------------2---0--------------|------------------------=
-|
||----0----2-----------------------------0----2----|----2----0-------0----1-=
-|


||-----------------------------------------------------------------|
||-----------------------------------------------------------------|  =20
||--------(2)--(2)-------------------------------------------------|
||----4----4----4-------------4--------4---4---4----------4--------|
||------------------------x----------------------------------------|
||----3----2----2---------x---2--------0---2---2----------2--------|


|-------------------------------------------------------------------|
|-------------------------------------------------------------------|
|--------(2)--(2)---------------------------------------------------|
|----4----4----4--------------4--------4---4---4----------4---------|
|-------------------------x-----------------------------------------|
|----3----2----2----------x---2--------0---2---2----------2---------|
             =20
      A chord diagramB5B5
||----------------------------------------------------------------------
||----------------------------------------------------------------------
||----------------------------------------------------------------------
||----4----4----x--x----4----4----x--x--x--x--x--x----4----4----x--x----
||----2----2----x--x----2----2----x--x--x--x--x--x----2----2----x--x----
||----------------------------------------------------------------------


  --------------------------------------|
  --------------------------------------|
  --------------------------------------|
  ----4----4----x--x--x--x--x--x--------|=20
  ----2----2----x--x--x--x--x--x--------|
  --------------------------------------|


SoLo
(slide fingers up&down strings 5-6)
either toggle switch or just move your hand to the beat


oUtRo
back to A chord diagramF#5F#5 and then same as intro


¨you cannot sedate all the things you hate¨; the rev. marilyn manson
¨youre victimized but got no one to blame, youre just another victim¨=
 everlast
¨there are desperate times uon us,there are codes of white and
black,political resentment and people start     to crack, theres hate and
opposition, theres fumbling dialog and yet you sit there and judge me and
you    think it makes a difference¨ greg gaffin,bad religion
¨ignorance has taken over, we got to take the power back¨ Zack de la=
 rocha
¨bitches ain’t shit¨ dr. dre
                                                    Jeremy =D6=BF=D6
                                                           \-/





Rage Against The Machine: Bulls On Parade
Off of: Evil Empire

My name is D-Nut but the person who actually transcribed this was Jeff
Perrin. But I have a lot of music and will send it to you if I have it.
My e-mail address is: R.LECLERC@worldnet.att.net
Tune down 1/2 step

Riff 1
--------------------------------
--------------------------------
--------------------------------
-4-------4---4--------4---4-----
--------------------------------
----2-----------2------------2--


Riff 2
------------------------------
------------------------------
------------------------------
------------------------------  w/wah-wah pedal
-4--4--X-X--4--4--X-X-X-X-X-X-
-2--2--X-X--2--2--X-X-X-X-X-X-


Riff 3
------------------------------------------------
------------------------------------------------
------------------------------------------------
------------------------------------------------
---------0----2--0------------------------------
-0---2--------------0--2---------2---0----0---1-


Riff 4
------------------------------------------------------------------------------------------------------------------------------------------------------------------------------------------------------------------------4--4--4-------4----4--4--4------4----4--4--4-------4----4--4--4--4-----4-----------X------------------------------------X-----------------------3--2--2----X--2----0--2--2------2----3--2--2----X--2----2--2--2--2--0--2

The solo is real fucked up. What you do is slide the pick and your
fingers up and down the fourth string. Changes in pitch are the result
of the hand slowing down and speeding.It’s kind of like scratching a
record.

That’s it, just those four riffs. Pretty simple huh. Just listen to the
song for the beat and the order of all the riffs.

Other versions of Bulls On Parade

Bulls on Parade (Ver. 2)Tabs

Almost there ...

Sign in to get your own page with links to favourite songs and more. You are just one click away...

Login with Facebook Login with Google