Log in

One click and you are in

Login with Facebook Login with Google

Why sign up and log in

Guitar Tabs Explorer
Radiohead tabs for You never wash up after yourself

Guitar tabs

You never wash up after yourself
Radiohead

...another great song of this english band (CD #2 my iron lung)
if you want to contact me please write to:
   ducasse@ensimag.imag.fr

-------1-----------1-----------1-----------1-----
-----3---3-------3---3-------3---3-------3---3---
---2-------2---2-------2---0-------0---0-------0-
-0-----------------------------------------------
-------------3-----------2-----------------------
-------------------------------------3-----------

-------0-----------0-----------0-----------0-----
-----1---1-------1---1-------1---1-------1---1---
---0-------0---0-------0---2-------2---2-------0-
-------------------------------------------------
-3-----------2-----------0-----------0-----------
-------------------------------------------------

-------0-----------3-----------0-----------0-----
-----1---1-------3---3-------0---0-------1---1---
---2-------2---0-------0---1-------1---2-------2-
-------------------------------------------------
------------------(2)----------------0-----------
-1-----------3-----------4-----------------------

-------3-----------3-----------3-----------3-----
-----0---0-------3---3-------0---0-------0---0---
---1-------1---0-------0---1-------1---1-------1-
-------------------------------------------------
-3----------------(2)----3-----------3-----------
-------------3-----------------------------------

Other versions of You Never Wash Up After Yourself

You never wash up after yourselfChords

Almost there ...

Sign in to get your own page with links to favourite songs and more. You are just one click away...

Login with Facebook Login with Google