Log in

One click and you are in

Login with Facebook Login with Google

Why sign up and log in

Guitar Tabs Explorer
Radiohead tabs for There there

Guitar tabs

"There,There" by Radiohead
Tab by: Dermot Donohoe, dermotdonohoe@yahoo.co.uk
==Intro==
variations of E7sus4(020200)
e--------------------0-2-----
B-----------0-------------0---
G-------2-------2---2--------
D---0------------------------
A-2---2---2-------2-----2----
E----------------------------

    
e--------------------2p0-----0-2----2---------2p0-0-2---...
B-----------0------------0--------0----0----------------... 
G-------2-------2--2-------2-------------2---2----------...
D---0---------------------------------------------------...
A-2---2---2-------2-------------2----2-----2------------...
E-------------------------------------------------------...

==Verse==
E7sus4(020200)(EADGBe)
in pitch.......
G(320030) F#(200030) Em(022000) A chord diagramG+G A chord diagramF#F# A chord diagramE minorEm
i go walking.....
A chord diagramE7sus4E7sus4
 
G(320030) F#(200030) Em(022000) A chord diagramG+G A chord diagramF#F# A chord diagramE minorEm

==Chorus==
A(002220)      F#minor (244222)
just `cause .....
G(320030) F#(200030) Em(022000) A chord diagramG+G A chord diagramF#F# A chord diagramE minorEm

A              F#minor
G(320030) F#(200030) Em(022000) A chord diagramG+G A chord diagramF#F# A chord diagramE minorEm

==Verse==

==Chorus==

==2nd Part==
Thom plays:
A chord diagramB minorBm A chord diagramDmDm A chord diagramA minorAm A chord diagramE minorEm

jonny riff
  (A chord diagramB minorBm)
e-------7---------7---------7---------7---
B-----------------------------------------
G-----7---7-----7---7-----7---7-----7---7-
D-----------------------------------------
A-----------------------------------------
E-0h7-------0h7-------0h7-------0h7-------
 
(A chord diagramDmDm)    (A chord diagramA minorAm)

e-----7-------7-(0)----7--------7---------
B-------6-------(5)----------------0-------
G--------------------5---5----5-----------
D---7-------7------7--------7-------------
A-5-------5-------------------------------
E-----------------------------------------
 
 (A chord diagramE minorEm)

e------7---------7---------7--------------
B----0---0-----0---0-----0---0------------
G-----------------------------------------
D-----------------------------------------
A-7--------7----------7---------7---------
E-----------------------------------------
 
(A chord diagramB minorBm) 700707
(A chord diagramDmDm) 057067
(A chord diagramA minorAm) 007507
(A chord diagramE minorEm) 070007
 
(A chord diagramB minorBm)  4 beats  
why so green? and
(A chord diagramDmDm)  2 beats
lonely
(A chord diagramA minorAm)  2 beats
lonely
(A chord diagramE minorEm)  3 beats
lonely
(A chord diagramB minorBm)             
heaven sent you
(A chord diagramDmDm)
to me
(A chord diagramA minorAm)
to me
(A chord diagramE minorEm)
to me
(A chord diagramB minorBm)
(A chord diagramDmDm)
(A chord diagramA minorAm)
(A chord diagramE minorEm)

==Outro==
 
NOTES:
  Well, there it is. It should be correct, but the last part
  of the riff may be wrong. As always, comments/corrections/additions
  are welcome........yellow flowers

(This is an improvement of the other guys ending)

Band: Radiohead
Album: Hail to the Thief

E-----7---
B-------7-
G---7----- x4
D---------
A---------
e-7-------

E-----7---
B-------6-
G---7----- x2
D---------
A---------
e-6-------

E-----7---
B-------5-
G---7----- x2
D---------
A---------
e-5-------

E-----7---
B-------4-
G---7----- x3
D---------
A---------
e-4-------
(Big stretch!)

This is all my own work.

Stew A chord diagramC majorC

Other versions of There There

There thereChords

Almost there ...

Sign in to get your own page with links to favourite songs and more. You are just one click away...

Login with Facebook Login with Google