Log in

One click and you are in

Login with Facebook Login with Google

Why sign up and log in

Guitar Tabs Explorer
Radiohead tabs for The bends

Guitar tabs

[Intro] :
[4x]

E:--3-----------0--------0---:
B:--2-----------3--------3---:
G:--3-----------0--------0---:
D:--0-----------2--------2---:
A:-----3--2--3--3--2--3--3---:
E:---------------------------:
[Verse] :
A chord diagramE minorEm                           A chord diagramG+G
Where                        words
A chord diagramC majorC                            A chord diagramE minorEm
now,                         Alone
A chord diagramG+G                            A chord diagramC majorC
Falling                      pane.

My blood will thicken...

E:--0-0-----------3--2-----x-x--3-3-3---------------------------------:
B:--2-2--2--3--5--------5--x-x--5-5-5--5--6--8--11----11----11b12b13--:
G:--2-2--------------------x-x--5-5-5--------------12----12-----------:
D:--2-2--------------------x-x--5-5-5---------------------------------:
A:--0-0--------------------x-x--3-3-3---------------------------------:
E:-------------------------x-x----------------------------------------:


[Verse see top]


A chord diagramE minorEm                   A chord diagramG+G
Who                  Have
            A chord diagramC majorC
            sinking

    Th  -  is    low?
E:---0--0--0--0--x--x--x--x--x--x--:
B:---1--1--1--1--x--x--x--x--x--x--:
G:---3--3--3--3--2--2--2--2--2--2--:
D:---2--2--2--2--x--x--x--x--x--x--:
A:---3--3--3--3--x--x--x--x--x--x--:
E:---------------x--x--x--x--x--x--:

[Chorus] :
A chord diagramD MajorD
My baby's

    got the bends, oh no...
E:----------0---------------0---:
B:----------3---------------3---:
G:----------0---------------0---:
D:----------2---------------2---:
A:--3---2---3----2----------3---:
E:------------------------------:

A chord diagramD MajorD
We....

    re - al  friends,  oh no...
E:-----------0------------------0---:
B:-----------3------------------3---:
G:-----------0------------------0---:
D:-----------2------------------2---:
A:--3----2---3-------2----------3---:
E:----------------------------------:

         A chord diagramA augmentedA                     A chord diagramE minorEm     A chord diagramA augmentedA
I'm just..........something to happen.I wish it was............




happen...
E:---------------------------------------------------------------:
B:---------------------------------------------------------------:
G:--0-0-0-0-0-0-0-0-0-0-0-0-0-0-0-3-3-3-3-3-3-3-3-3-3-3-3-3-3-3--:
D:--2-2-2-2-2-2-2-2-2-2-2-2-2-2-2-2-2-2-2-2-2-2-2-2-2-2-2-2-2-2--:
A:--2-2-2-2-2-2-2-2-2-2-2-2-2-2-2-2-2-2-2-2-2-2-2-2-2-2-2-2-2-2--:
E:--0-0-0-0-0-0-0-0-0-0-0-0-0-0-0-0-0-0-0-0-0-0-0-0-0-0-0-0-0-0--:


[Verse]


Guitar 2 plays this over this verse:

E:-------------------------------------------------------------------:
B:-------------------------------------------------------------------:
G:-11--9--7--5--4-----4--12-11--5--7--5--4--5----5----7----7--9--11--:
D:-----------------5-------------------------------------------------:
A:--9--7--5--3--2-----2--10--9--7--5--3--2--3--3---3--5--5----7---9--:
E:-----------------3-------------------------------------------------:


[Chorus]


[Rapping bit]
A chord diagramA augmentedA  A chord diagramE minorEm  A chord diagramA augmentedA  C(2)


[2x]
E:-----------------------------:
B:--12--12----12--13--12--15---:
G:--12--------------------12---:
D:--12-----12-------------12---:
A:-----------------------------:
E:-----------------------------:

[2x]
E:--------------------------------:
B:--5--5--6--5--6--5--6--5--6--5--:
G:--5--5--5--5--5--5--5--5--5--5--:
D:--5--5--5--5--5--5--5--5--5--5--:
A:--------------------------------:
E:--------------------------------:

[2x]
E:-----------------------------:
B:--12--12----12--13--12--15---:
G:--12--------------------12---:
D:--12-----12-------------12---:
A:-----------------------------:
E:-----------------------------:

[2x]
E:--------------------------------:
B:--5--5--6--5--6--5--6--5--6--5--:
G:--5--5--5--5--5--5--5--5--5--5--:
D:--5--5--5--5--5--5--5--5--5--5--:
A:--------------------------------:
E:--------------------------------:

          A chord diagramG+G

                               A chord diagramC majorC


E:--0-0-0-0-0-0-0-0-0-0-0-0--------------------------------:
B:--1s3-3-3s5-5-5s3-3-3s1-1--0h1--0------------------------:
G:----------------------------------2--0-------------------:
D:--------------------------------------0h2--0-------------:
A:----------------------------------------------0h2--0-----:
E:------------------------------------------------------3--:

          A chord diagramG+G

                               A chord diagramC majorC


[outro]

A chord diagramE minorEm

    A chord diagramG+G

              A chord diagramC majorC



----------------------
- Chord Construction -
----------------------

A chord diagramE minorEm                 - [022000]
A chord diagramG+G                  - [320003]
A chord diagramC majorC                  - [x32010]
A chord diagramD MajorD                  - [xx0232]
A chord diagramA augmentedA                  - [x02220]
C(2)               - [x35553]
ⓘ Guitar tab for 'The Bends' by Radiohead, an alternative rock band formed in 1991 from Abingdon, England. Radiohead is known for their sad rock/pop music.

Almost there ...

Sign in to get your own page with links to favourite songs and more. You are just one click away...

Login with Facebook Login with Google