Log in

One click and you are in

Login with Facebook Login with Google

Why sign up and log in

Guitar Tabs Explorer
Radiohead tabs for Sail to the moon

Guitar tabs

Album: Hail to the Thief
Tabbed by John Nevill
__________________________________________________________________
<Intro>
   A chord diagramA minorAm    A chord diagramA minorAm    A chord diagramA minorAm    A chord diagramA minorAm    A chord diagramA minorAm    A^m   A chord diagramA minorAm
e  x-----x-----x-----x-----x-----x-----x
b  9-----9-----9-----9-----9-----10----9
g  9-----9-----9-----9-----9-----9-----9
d  11---11----11----11----11----11----11
a  0--0-----0-----0-----0-----0-----0---
e  x-----x-----x-----x-----x-----x-----x

   A chord diagramC majorC     A chord diagramC majorC     A chord diagramFF     A chord diagramFF     A chord diagramFF     A chord diagramFF     A chord diagramFF     A chord diagramFF     A chord diagramFF
e  x-----x-----x-----x-----x-----x-----x-----x-----x
b  8-----x-----1-----1-----1-----1-----1-----1-----1
g  9-10--9-----2-----2-----2-----2-----2-----2-----2
d  10----x-10--3-----3-----3-----3-----3-----3-----3
a  x-----x-----x-----x-----x-----x-----x-----x-----x
e  8-----x-----1--1-----1-----1-----1-----1-----1---

(repeat two lines below twice)
   A chord diagramA minorAm    A chord diagramA minorAm    A chord diagramA minorAm    A chord diagramA minorAm    A^m   A chord diagramA minorAm
e  x-----x-----x-----x-----x-----x
b  9-----9-----9-----9-----10----9
g  9-----9-----9-----9-----9-----9
d  11----11----11----11----11----11
a  0--0-----0-----0-----0-----0---
e  x-----x-----x-----x-----x-----x

   A chord diagramC majorC     A chord diagramC majorC     A chord diagramFF     A chord diagramFF     A chord diagramFF     A chord diagramFF     A chord diagramFF     A chord diagramFF
e  x-----x-----x-----x-----x-----x-----x-----x
b  8-----x-----1-----1-----1-----1-----1-----1
g  9-10--9-----2-----2-----2-----2-----2-----2
d  10----x-10--3-----3-----3-----3-----3-----3
a  x-----x-----x-----x-----x-----x-----x-----x
e  8-----x-----1--1-----1-----1-----1-----1---
_______________________________________________________________________
<Verse>

(repeat this line twice)
   A chord diagramFF     A chord diagramA augmentedA     A chord diagramA augmentedA     A chord diagramA augmentedA     A chord diagramA augmentedA     A chord diagramA augmentedA     A chord diagramA augmentedA     A chord diagramA augmentedA
e  x-----x-----x-----5-----7-----8-----7-----x---
g  1-----5-----9-----x--5-----5-----5-----5--6--5
b  2-----6-----x--9--5-----5-----5-----5-----5---
d  3-----7-----x-----x-----x-----x-----x-----x---
a  x-----x-----x-----x-----x-----x-----x-----x---
e  1--1--5--5--5-----5-----5-----5-----5-----5---

   A chord diagramC majorC     A chord diagramC majorC     A chord diagramC majorC     A chord diagramE minorEm    A chord diagramE minorEm    A chord diagramE minorEm
e  x-----x-----x-----x-----x-----x---
b  8-----8-----8-----8-----8-----8---
g  9-----9-----9-----9-----9-----9---
d  10----10----10----9-----9-----9---
a  x-----x-----x-----7--7-----7-----7
e  8--8-----8-----8--x-----x-----x---

(repeat this line twice)
   A chord diagramFF     A chord diagramA augmentedA     A chord diagramA augmentedA     A chord diagramA augmentedA     A chord diagramA augmentedA     A chord diagramA augmentedA     A chord diagramA augmentedA     A chord diagramA augmentedA
e  x-----x-----x-----5-----7-----8-----7-----x---
g  1-----5-----9-----x--5-----5-----5-----5--6--5
b  2-----6-----x--9--5-----5-----5-----5-----5---
d  3-----7-----x-----x-----x-----x-----x-----x---
a  x-----x-----x-----x-----x-----x-----x-----x---
e  1--1--5--5--5-----5-----5-----5-----5-----5---

   A chord diagramC majorC     A chord diagramC majorC     A chord diagramC majorC     A chord diagramE minorEm    A chord diagramE minorEm    A chord diagramE minorEm
e  x-----x-----x-----x-----x-----x---
b  8-----8-----8-----8-----8-----8---
g  9-----9-----9-----9-----9-----9---
d  10----10----10----9-----9-----9---
a  x-----x-----x-----7--7-----7-----7
e  8--8-----8-----8--x-----x-----x---


<end of verse 1>
   A chord diagramA augmentedA     A chord diagramA augmentedA     A chord diagramA augmentedA     A chord diagramA augmentedA     A chord diagramC majorC     A chord diagramC majorC     A chord diagramC majorC     A chord diagramC majorC
e  x-----x-----x-----x-----0--2--2--0--0--2--2--0
g  2--4--4--2--2--4--4--2--1--1--1--1--1--1--1---
b  2--2--2--2--2--2--2--2--0-----x-----x-----x---
d  2-----x-----2-----x-----x-----x-----x-----x---
a  0-----x-----0-----x-----1-----x-----1-----x---
e  x-----x-----x-----x-----x-----x-----x-----x---


e  x-----x-----x-----x----
g  1--3--3--1--1h3p1-0h1p0
b  2-----x-----2-----x----
d  3-----x-----3-----x----
a  x-----x-----x-----x----
e  1-----x-----1-----x----
(repeat verse)


<end of verse 2>
(repeat ad nauseum)
   A chord diagramFF     A chord diagramA augmentedA     A chord diagramA augmentedA     A chord diagramA augmentedA     A chord diagramA augmentedA     A chord diagramA augmentedA     A chord diagramA augmentedA     A chord diagramA augmentedA
e  x-----x-----x-----5-----7-----8-----7-----x---
g  1-----5-----9-----x--5-----5-----5-----5--6--5
b  2-----6-----x--9--5-----5-----5-----5-----5---
d  3-----7-----x-----x-----x-----x-----x-----x---
a  x-----x-----x-----x-----x-----x-----x-----x---
e  1--1--5--5--5-----5-----5-----5-----5-----5---

   A chord diagramC majorC     A chord diagramC majorC     A chord diagramC majorC     A chord diagramE minorEm    A chord diagramE minorEm    A chord diagramE minorEm
e  x-----x-----x-----x-----x-----x---
b  8-----8-----8-----8-----8-----8---
g  9-----9-----9-----9-----9-----9---
d  10----10----10----9-----9-----9---
a  x-----x-----x-----7--7-----7-----7
e  8--8-----8-----8--x-----x-----x---

<end of song>

_________________________________________________________________

Other versions of Sail To The Moon

Sail to the moonChords

Almost there ...

Sign in to get your own page with links to favourite songs and more. You are just one click away...

Login with Facebook Login with Google