Log in

One click and you are in

Login with Facebook Login with Google

Why sign up and log in

Guitar Tabs Explorer
Radiohead bass tabs for Feral

Bass tabs with lyrics

Tuning: Standard

This is based on the basement version so listen to that for timings, the studio version is just a stripping
back of this.
Bass comes in with vocals:

1: "Yooouu
   are..."
G|-----------------------------------------------------------------|
D|---------------5-----------5-------------------------------------|
A|------------------------------------------------5---0---1---3----|
E|--3--------------------------------------------------------------|

G|------------------------------------------------------------------|
D|---------------5-----------5--------------------------------------|
A|-1-0------------------------------------------5-0-----1-----3-----|
E|-----3------------------------------------------------------------|

 1:        ju- ju- ju-...         ju- ju- ju-....
G|---------------------------------------------------------------------------|
D|---------------------------------------------------------------------------|
A|---------------------------------------------------------------------------|
E|--3------------------------------------------------------------------------|

1: this is the only part that appears in the studio version
2: Please...  Don't....  Judge...  Judge...
G|-------------------------------------------------------------------------|
D|-------------------------------------------------------------------------|
A|----------------------------5---5---5---5h6--6---5-----------------------|
E|--5---5---5---6---6---6--------------------------------------------------|

Repeat from the top then go to the main riff:

"Judge..."
E|-6--(6)--3--8---8---5--|

Repeat this like crazy for the live version (56 times I think) until the end of the song
For studio: play x32, then rest for 8, then play again x15
End on
E|-6-

| \ slide down
| h hammer-on
| p pull-off
| ~ vibrato
| + harmonic
| x Mute note

Almost there ...

Sign in to get your own page with links to favourite songs and more. You are just one click away...

Login with Facebook Login with Google