GuitarTabsExplorer icon
GuitarTabsExplorer icon

Log in

Songbook

  • Log in to add and see bookmarks

Last visited songs

  • No songs visited yet...
All I Need by Radiohead

Bass tabs

"All I Need" - Radiohead

20 seconds in

 Intro
G|----------------|------------------------|
D|----------------|------------9-----------|
A|------------107-|--------------10--------|
E|8---------------|----------------------8-|
 |1 + 2 + 3 + 4 + |1 + 2 + 3 + 4 + 5 + 6 + |

G|----------------|--------------------7---|
D|----------------|------------9-----------|
A|------------107-|--------------10--------|
E|----------------|----------------------8-|
 |1 + 2 + 3 + 4 + |1 + 2 + 3 + 4 + 5 + 6 + |

 Verse
G|----------------|--------------------7---|
D|----------------|------------9-----------|
A|------------107-|--------------10--------|
E|----------------|----------------------8-|
 |1 + 2 + 3 + 4 + |1 + 2 + 3 + 4 + 5 + 6 + |

G|----------------|--------------------7---|
D|----------------|------------9-----------|
A|------------107-|--------------10--------|
E|----------------|----------------------8-|
 |1 + 2 + 3 + 4 + |1 + 2 + 3 + 4 + 5 + 6 + |

G|----------------|--------------------7---|
D|----------------|------------9-----------|
A|------------107-|--------------10--------|
E|----------------|----------------------8-|
 |1 + 2 + 3 + 4 + |1 + 2 + 3 + 4 + 5 + 6 + |

G|----------------|--------------------7---|
D|----------------|------------9-----------|
A|------------107-|--------------10--------|
E|----------------|----------------------8-|
 |1 + 2 + 3 + 4 + |1 + 2 + 3 + 4 + 5 + 6 + |

G|----------------|--------------------7---|
D|----------------|------------9-----------|
A|------------107-|--------------10--------|
E|----------------|----------------------8-|
 |1 + 2 + 3 + 4 + |1 + 2 + 3 + 4 + 5 + 6 + |

G|----------------|--------------------7---|
D|----------------|------------9-----------|
A|------------107-|--------------10--------|
E|----------------|----------------------8-|
 |1 + 2 + 3 + 4 + |1 + 2 + 3 + 4 + 5 + 6 + |

G|----------------|------------7---|
D|----------------|----------------|
A|------------107-|----------------|
E|----------------|--------------8-|
 |1 + 2 + 3 + 4 + |1 + 2 + 3 + 4 + |

 Chorus 1
G|----------------|------------7---|----------------|------------7---|
D|----------------|----------------|----------------|----------------|
A|------------107-|----------------|------------107-|----------------|
E|----------------|--------------8-|----------------|--------------8-|
 |1 + 2 + 3 + 4 + |1 + 2 + 3 + 4 + |1 + 2 + 3 + 4 + |1 + 2 + 3 + 4 + |

G|----------------|------------7---|----------------|------------7---|
D|----------------|----------9-----|----------------|----9-----------|
A|------------107-|----------------|------------107-|------10--------|
E|----------------|--------------8-|----------------|--------------8-|
 |1 + 2 + 3 + 4 + |1 + 2 + 3 + 4 + |1 + 2 + 3 + 4 + |1 + 2 + 3 + 4 + |

 Verse 2
G|----------------|--------------------7---|
D|----------------|------------9-----------|
A|------------107-|--------------10--------|
E|----------------|----------------------8-|
 |1 + 2 + 3 + 4 + |1 + 2 + 3 + 4 + 5 + 6 + |

G|----------------|--------------------7---|
D|----------------|------------9-----------|
A|------------107-|--------------10--------|
E|----------------|----------------------8-|
 |1 + 2 + 3 + 4 + |1 + 2 + 3 + 4 + 5 + 6 + |

G|----------------|--------------------7---|
D|----------------|------------9-----------|
A|------------107-|--------------10--------|
E|----------------|----------------------8-|
 |1 + 2 + 3 + 4 + |1 + 2 + 3 + 4 + 5 + 6 + |

G|----------------|--------------------7---|
D|----------------|------------9-----------|
A|------------107-|--------------10--------|
E|----------------|----------------------8-|
 |1 + 2 + 3 + 4 + |1 + 2 + 3 + 4 + 5 + 6 + |

G|----------------|--------------------7---|
D|----------------|------------9-----------|
A|------------107-|--------------10--------|
E|----------------|----------------------8-|
 |1 + 2 + 3 + 4 + |1 + 2 + 3 + 4 + 5 + 6 + |

G|----------------|--------------------7---|
D|----------------|------------9-----------|
A|------------107-|--------------10--------|
E|----------------|----------------------8-|
 |1 + 2 + 3 + 4 + |1 + 2 + 3 + 4 + 5 + 6 + |

 Chorus 2
G|----------------|------------7---|----------------|------------7---|
D|----------------|----------------|----------------|----------9-----|
A|------------107-|----------------|------------107-|----------------|
E|----------------|--------------8-|----------------|--------------8-|
 |1 + 2 + 3 + 4 + |1 + 2 + 3 + 4 + |1 + 2 + 3 + 4 + |1 + 2 + 3 + 4 + |

G|----------------|----------------|----------------|------------7---|
D|----------------|------------9---|----------------|----9-----------|
A|------------107-|----------------|------------107-|------10--------|
E|----------------|--------------8-|----------------|--------------8-|
 |1 + 2 + 3 + 4 + |1 + 2 + 3 + 4 + |1 + 2 + 3 + 4 + |1 + 2 + 3 + 4 + |

 End
G|----------------|----------------|----------------|----------------|
D|----------------|----------------|----------------|----------------|
A|----------------|----------------|----------------|------------107-|
E|------------108-|------------108-|------------108-|----------------|
 |1 + 2 + 3 + 4 + |1 + 2 + 3 + 4 + |1 + 2 + 3 + 4 + |1 + 2 + 3 + 4 + |

G|----------------|------------7---|----------------|----------------|
D|------------9---|----------------|----------------|----------------|
A|--------------10|----------------|----------------|------------107-|
E|----------------|--------------8-|------------108-|----------------|
 |1 + 2 + 3 + 4 + |1 + 2 + 3 + 4 + |1 + 2 + 3 + 4 + |1 + 2 + 3 + 4 + |

G|----------------|------------7---|----------------|----------------|
D|------------9---|----------------|----------------|----------------|
A|--------------10|----------------|----------------|--------------7-|
E|----------------|--------------8-|------------108-|------------10--|
 |1 + 2 + 3 + 4 + |1 + 2 + 3 + 4 + |1 + 2 + 3 + 4 + |1 + 2 + 3 + 4 + |

G|----------------|----------------|----------------|----------------|
D|------------9---|----------------|----------------|----------------|
A|--------------10|----------------|----------------|--------------7-|
E|----------------|------------108-|------------108-|------------10--|
 |1 + 2 + 3 + 4 + |1 + 2 + 3 + 4 + |1 + 2 + 3 + 4 + |1 + 2 + 3 + 4 + |

G|----------------|------------7---|----------------|-------------------------------
D|------------9---|----------------|----------------|------------------------
A|--------------10|----------------|----------------|-------------------
E|----------------|--------------8-|------------108-|------------108-------------
 |1 + 2 + 3 + 4 + |1 + 2 + 3 + 4 + |1 + 2 + 3 + 4 + |1 + 2 + 3 + 4 + ......

[ Privacy | About us ]

Welcome to the guitar community

Why join and log in?
- Get songbook with favourite songs
- Get custom made front page
- Submit chords and tabs
- Submit guitar-cover videos
- Get a lot of thumbs up for your work

Songbook

Last visited songs

Site
Home
Search
Community
Submit chords

Video

No video for this page. Check out how you can submit guitar-cover videos here

Search tabs and chords

Browse by artist

A B C D E F G H I J K L M N O P Q R S T U V W X Y Z #


Menu

Search

Video

Bookmark

Login