Search tabs and chords

Search for song, artist or band

Log in

One click and you are in

Login with Facebook Login with Google

Why sign up and log in

Guitar Tabs Explorer
Radiohead guitar tabs for Acoustic

Guitar tabs with lyrics

Verse:
   Em chord diagramEmEm    Am chord diagramAmAm    G chord diagramGG     Bm chord diagramBmBm               Em chord diagramEmEm        C chord diagramCC     G chord diagramGG     Bm chord diagramBmBm    Em chord diagramEmEm
 I'm on a roll, I'm on a roll,    This time,          I feel my luck could change.
e|-0--0--0--0--3--3--2--2----2-0-0--0--0-0---0--0--0--3--3--2--2--0--0-0---------0--0-0---------|
B|-0--0--1--1--0--0--3--3----3-3-3--0--0--0--0--1--1--0--0--2--3--0--0--0--------0--0--0--------|
G|-0--0--2--2--0--0--4--4--4-----4--0--0---0-0--0--0--0--0--3--4--0--0---0-------0--0---0-------|
D|-2--2--2--2--0--0--4--4-4------4--2--2-----2--2--2--0--0--4--4--2--2-----------2--2-----------|
A|-2--2--0--0--2--2--2--2--------2--2--2-----2--3--3--2--2--4--2--2--2-------0h2-2--2----2p0----|
E|-0--0--0--0--3--3--2--2--------2--0--0-----0--0--0--3--3--2--2--0--0----0h3----0--0-------3p0-|

   Em chord diagramEmEm    Am chord diagramAmAm    G chord diagramGG     Bm chord diagramBmBm               Em chord diagramEmEm        C chord diagramCC     G chord diagramGG     Bm chord diagramBmBm    Em chord diagramEmEm
 Kill me Sarah, Kill me again,    With love,          It's gonna be a glorious day.
e|-0--0--0--0--3--3--2--2----2-0-0--0--0-0---0--0--0--3--3--2--2--0--0-0---------0--0-|
B|-0--0--1--1--0--0--3--3----3-3-3--0--0--0--0--1--1--0--0--2--3--0--0--0--------0--0-|
G|-0--0--2--2--0--0--4--4--4-----4--0--0---0-0--0--0--0--0--3--4--0--0---0-------0--0-|
D|-2--2--2--2--0--0--4--4-4------4--2--2-----2--2--2--0--0--4--4--2--2-----------2--2-|
A|-2--2--0--0--2--2--2--2--------2--2--2-----2--3--3--2--2--4--2--2--2-------0h2-2--2-|
E|-0--0--0--0--3--3--2--2--------2--0--0-----0--0--0--3--3--2--2--0--0----0h3----0--0-|

Chorus:

(Chords)
        A chord diagramAA Asus4 chord diagramAsus4Asus4 A chord diagramAA Asus2 chord diagramAsus2Asus2 Em chord diagramEmEm                  A chord diagramAA Asus4 chord diagramAsus4Asus4 A chord diagramAA Asus2 chord diagramAsus2Asus2 Em chord diagramEmEm
Pull me out      of the aircrash, Pull me out     of the lake,
e|------0--0--0--0--0--0---------------------0--0--0--0--0--0-|
B|------2-/3--3-\2--0--0---------------------2-/3--3-\2--0--0-|
G|------2--2--2--2--2--0---------------------2--2--2--2--2--0-|
D|------2--2--2--2--2--2---------------------2--2--2--2--2--2-|
A|------0--0--0--0--0--2---------------------0--0--0--0--0--2-|
E|------0--0--0--0--0--0---------------------0--0--0--0--0--0-|

(Solo)
e|-------------------------------------------------------15-14-12-|
B|-14b16r14-12-------------------14b16r14-12----------------------|
G|-------------14-12----12----12-------------14-12----12----------|
D|-------------------14----14----------------------14-------------|
A|----------------------------------------------------------------|
E|----------------------------------------------------------------|

(Chords)
        A chord diagramAA Asus4 chord diagramAsus4Asus4 A chord diagramAA Asus2 chord diagramAsus2Asus2 Em chord diagramEmEm               C7 chord diagramC7C7             B7 chord diagramB7B7
'Cause I'm your superhero,       We are standing on the edge
e|0-0-0-0--0--0--0--0--0--------------------------------0-|
B|0-0-0-2-/3--3-\2--0--0-----------------------------1--0-|
G|0-2-0-2--2--2--2--2--0-------------------------3------2-|
D|2-2-2-2--2--2--2--2--2---------------------2----------1-|
A|0-0-0-0--0--0--0--0--2-----------------3--------------2-|
E|0-0-0-0--0--0--0--0--0--------------------------------0-|

(Solo)

e|-------------------------------|
B|-14b16r14-12-------------------|
G|-------------14-12-------------|
D|-------------------14-12-------|
A|-------------------------14-12-|
E|-------------------------------|

   Em chord diagramEmEm                      Em chord diagramEmEm/F chord diagramFF   Em chord diagramEmEm
e|-0--0-0---------0--0-0---0-0-0-0-0--0-0---------0--0-0---------|
B|-0--0--0--------0--0--0--0-0-0-0-0--0--0--------0--0--0--------|
G|-0--0---0-------0--0---0-0-0-0-0-0--0---0-------0--0---0-------|
D|-2--2----2p0----2--2-----2-2-2-2-2--2----2p0----2--2-----------|
A|-2--2-------2p0-2--2-----2-2-2-2-2--2-------2p0-2--2-------0h2-|
E|-0--0-----------0--0-----1-1-1-1-0--0-----------0--0----0h3----|

Verse:
   Em chord diagramEmEm    Am chord diagramAmAm    G chord diagramGG     Bm chord diagramBmBm               Em chord diagramEmEm        C chord diagramCC     G chord diagramGG     Bm chord diagramBmBm    Em chord diagramEmEm
 The head of state, has called for me, by name, I don't have time for him.
e|-0--0--0--0--3--3--2--2----2-0-0--0--0-0---0--0--0--3--3--2--2--0--0-0---------0--0-0---------|
B|-0--0--1--1--0--0--3--3----3-3-3--0--0--0--0--1--1--0--0--2--3--0--0--0--------0--0--0--------|
G|-0--0--2--2--0--0--4--4--4-----4--0--0---0-0--0--0--0--0--3--4--0--0---0-------0--0---0-------|
D|-2--2--2--2--0--0--4--4-4------4--2--2-----2--2--2--0--0--4--4--2--2-----------2--2-----------|
A|-2--2--0--0--2--2--2--2--------2--2--2-----2--3--3--2--2--4--2--2--2-------0h2-2--2----2p0----|
E|-0--0--0--0--3--3--2--2--------2--0--0-----0--0--0--3--3--2--2--0--0----0h3----0--0-------3p0-|

   Em chord diagramEmEm    Am chord diagramAmAm    G chord diagramGG     Bm chord diagramBmBm               Em chord diagramEmEm        C chord diagramCC     G chord diagramGG     Bm chord diagramBmBm    Em chord diagramEmEm
 It's gonna be a glorious day,                  I feel my luck could change.
e|-0--0--0--0--3--3--2--2----2-0-0--0--0-0---0--0--0--3--3--2--2--0--0-0---------0--0-|
B|-0--0--1--1--0--0--3--3----3-3-3--0--0--0--0--1--1--0--0--2--3--0--0--0--------0--0-|
G|-0--0--2--2--0--0--4--4--4-----4--0--0---0-0--0--0--0--0--3--4--0--0---0-------0--0-|
D|-2--2--2--2--0--0--4--4-4------4--2--2-----2--2--2--0--0--4--4--2--2-----------2--2-|
A|-2--2--0--0--2--2--2--2--------2--2--2-----2--3--3--2--2--4--2--2--2-------0h2-2--2-|
E|-0--0--0--0--3--3--2--2--------2--0--0-----0--0--0--3--3--2--2--0--0----0h3----0--0-|

Chorus:

(Chords)
        A chord diagramAA Asus4 chord diagramAsus4Asus4 A chord diagramAA Asus2 chord diagramAsus2Asus2 Em chord diagramEmEm                  A chord diagramAA Asus4 chord diagramAsus4Asus4 A chord diagramAA Asus2 chord diagramAsus2Asus2 Em chord diagramEmEm
Pull me out      of the aircrash, Pull me out     of the lake,
e|------0--0--0--0--0--0---------------------0--0--0--0--0--0-|
B|------2-/3--3-\2--0--0---------------------2-/3--3-\2--0--0-|
G|------2--2--2--2--2--0---------------------2--2--2--2--2--0-|
D|------2--2--2--2--2--2---------------------2--2--2--2--2--2-|
A|------0--0--0--0--0--2---------------------0--0--0--0--0--2-|
E|------0--0--0--0--0--0---------------------0--0--0--0--0--0-|

(Solo)
e|-------------------------------------------------------15-14-12-|
B|-14b16r14-12-------------------14b16r14-12----------------------|
G|-------------14-12----12----12-------------14-12----12----------|
D|-------------------14----14----------------------14-------------|
A|----------------------------------------------------------------|
E|----------------------------------------------------------------|

(Chords)
        A chord diagramAA Asus4 chord diagramAsus4Asus4 A chord diagramAA Asus2 chord diagramAsus2Asus2 Em chord diagramEmEm               C7 chord diagramC7C7             B7 chord diagramB7B7
'Cause I'm your superhero,       We are standing on the edge.
e|0-0-0-0--0--0--0--0--0--------------------------------0-|
B|0-0-0-2-/3--3-\2--0--0-----------------------------1--0-|
G|0-2-0-2--2--2--2--2--0-------------------------3------2-|
D|2-2-2-2--2--2--2--2--2---------------------2----------1-|
A|0-0-0-0--0--0--0--0--2-----------------3--------------2-|
E|0-0-0-0--0--0--0--0--0--------------------------------0-|

(Solo)

e|-------------------------------|
B|-14b16r14-12-------------------|
G|-------------14-12-------------|
D|-------------------14-12-------|
A|-------------------------14-12-|
E|-------------------------------|

Bridge:

e|----0-0-0-0-0---0---0-0-------------|
B|----7-7-7-7-7---5---3-1-------------|
G|----0-0-0-0-0---0---0-0-------------|
D|----x-x-x-x-x---x---x-x-------------|
A|----9-9-9-9-9---7---5-3-------------|
E|--0---------------------2-2-2-3-2-0-|

e|--0-0-0-0-0---0---0-0---------------|
B|--7-7-7-7-7---5---3-1---------------|
G|--0-0-0-0-0---0---0-0---------------|
D|--x-x-x-x-x---x---x-x---------------|
A|--9-9-9-9-9---7---5-3---------------|
E|----------------------2-2-2-3-2-0---|

e|--9-9-9-9-9---7---5-3---------------|
B|--7-7-7-7-7---5---3-1---------------|
G|--0-0-0-0-0---0---0-0---------------|
D|--x-x-x-x-x---x---x-x---------------|
A|--9-9-9-9-9---7---5-3---------------|
E|----------------------2-2-2-3-2-0---|

Outro:

e|--------------------------------------------|
B|--3s5-5-5--3s5-5-5--3s5-5-5-5-5-5-5-5-8-5-8-|
G|--------------------------------------------|
D|--------------------------------------------|
A|--------------------------------------------|
E|--------------------------------------------|

e|-------------------------------------------------------15-14-12-|
B|-14b16r14-12-------------------14b16r14-12----------------------|
G|-------------14-12----12----12-------------14-12----12----------|
D|-------------------14----14----------------------14-------------|
A|----------------------------------------------------------------|
E|----------------------------------------------------------------|

                                       C7 chord diagramC7C7              B7 chord diagramB7B7
                               We are standing on the edge.
e|-----------------------------------------------------0-|
B|-14b16r14-12---------------------------------------1-0-|
G|-------------14-12-----------------------------3-----2-|
D|-------------------14-12-------------------2---------1-|
A|-------------------------14-12---------3-------------2-|
E|-----------------------------------------------------0-|

Almost there ...

Sign in to get your own page with links to favourite songs and more. You are just one click away...

Login with Facebook Login with Google