Log in

One click and you are in

Login with Facebook Login with Google

Why sign up and log in

Guitar Tabs Explorer
Racoon tabs for Paper home

Guitar tabs

The intro is the same as the first 4 measures of the verses:


e-----------------------3----------------------------------------------------------------------------------------
b-------------------------------3-----------------------------------------------3--------------------------------
g-----------5-----------------------------3----------------------5---------5-----------------5-------------------
d------------------5----------------------------------------(5)-------5---------------------------------5--------
a---3---------------------(3)-------(3)--------------------------------------------------------------------------
e--------------------------------------------------5------------------------------------(5)--------(5)-----------
e--------------------3--------------------------------------------------------------
b------------------------------3----------------------------------------------------
g----------5------------------------------3-------------0---------(0--2--0)-------	2 X
d---------------5---------------------------------------------3---------------------
a--3--------------------(3)--------(3)----------------------------------------------
e--------------------------------------------------1---------------------------1----


Second part of the verses:

e-------------------------------------------------------------------------------------------------------------------
b----------------------0-------------------------------------1----------------------------------------3-------------
g-----------0------0----------0-------------------0-----0------------0--------------------0-----0-------------0-----
d-------0------0-------------------0-----------0-----0---------------------0---------0------0----------------------0
a-------------------------------------------------------------------------------------------------------------------
e---3---------------------3----3----------1----------------------1-----1---------3------------------------3------3--


Chorus:
	Emin	Amin/F	Emin	Amin/F
	Emin	Amin/F	Amin	A chord diagramG+G (plucking the following:)

e----------------------------------------------------------------------------------------
b------------------------0-----------------1------------------3------------------------
g--------------0-----0---------0------0----------0------0------------0------0-------
d-----------------0----------------0------------------0-------------------0-----------
a----------------------------------------------------------------------------------------
e---3-----------------------------------------------------------------------------------





In the end he keeps on playing the first part of the verse and this:

e-----------8---7--------------------------------
b--------------------8---------------------------
g-------------------------------------------------
d-------------------------------------------------
a---8---------------------------------------------
e-------------------------------------------------

Almost there ...

Sign in to get your own page with links to favourite songs and more. You are just one click away...

Login with Facebook Login with Google