Log in

One click and you are in

Login with Facebook Login with Google

Why sign up and log in

Guitar Tabs Explorer
Racing Cars bass tabs for They shoot horses dont they

They Shoot Horses Don't They bass tab by Racing Cars

Racing Cars bass tabs for They shoot horses dont they

Bass tabs

std tuning


INTRO / VERSE 1
G |-----------------|-----------9-7---|-----------------|-----------9-7---|
D |-----------------|---------------5-|-----------------|---------------5-|
A |-3-----3-3-------|-3-----3-3-------|-3-----3-3-------|-3-----3-3-------|
E |-----------------|-----------------|-----------------|-----------------|
  1 & 2 & 3 & 4 &  1 & 2 & 3 & 4 &  1 & 2 & 3 & 4 &  1 & 2 & 3 & 4 &

G |-----------------|-----------------|-----------------|-----------9-7---|
D |---------5-5-----|-------------5---|-----------------|---------------5-|
A |-------5-----5---|-----------5---2-|-3-----3-3-------|-3-----3-3-------|
E |-3---------------|-3-3-3--3--------|-----------------|-----------------|
  1 & 2 & 3 & 4 &  1 & 2 & 3 & 4 &  1 & 2 & 3 & 4 &  1 & 2 & 3 & 4 &
VERSE 2
G |-----------------|-----------------|-----------------|-----------9-7---|
D |-----------------|-----------------|-----------------|---------------5-|
A |-3-----3-3-------|-3-----3-3-------|-3-----3-3-------|-3-----3-3-------|
E |-----------------|-----------------|-----------------|-----------------|
  1 & 2 & 3 & 4 &  1 & 2 & 3 & 4 &  1 & 2 & 3 & 4 &  1 & 2 & 3 & 4 &

G |-----------------|-----------------|-----------------|-----------------|
D |---------5-5-----|---------5-5-----|-----------------|-----------------|
A |-------5-----5---|-------5-----2---|-3-----3-3-------|-3-----3-3-2-3-4-|
E |-3---------------|-3---------------|-----------------|-----------------|
  1 & 2 & 3 & 4 &  1 & 2 & 3 & 4 &  1 & 2 & 3 & 4 &  1 & 2 & 3 & 4 &


PRE CHORUS
G |-----------------|-----------------|-----------------|-----------------|
D |-------------5---|-----------------|-2---------------|-----------------|
A |-5-------3-5-----|---------------2-|-----------------|-----------------|
E |---------------0-|-3-------0-3-3---|---------0-0-0-0-|-1-------1-1-1-1-|
  1 & 2 & 3 & 4 &  1 & 2 & 3 & 4 &  1 & 2 & 3 & 4 &  1 & 2 & 3 & 4 &

G |-----------------|-----------------|-----------------|-----------------|
D |-----------------|-----------------|-----------------|-----------2-3-5-|
A |-3-----3-3-------|-----------------|-3-3-3-3-3-3-3-3-|-----2-3-5-------|
E |-----------------|-3-----3-3-------|-----------------|-3-5-------------|
  1 & 2 & 3 & 4 &  1 & 2 & 3 & 4 &  1 & 2 & 3 & 4 &  1 & 2 & 3 & 4 &
CHORUS
G |-----------------|-----------------|-----------------|-----------------|
D |-----------------|---------5-5-----|-----------------|--------5-5------|
A |-3-------3-3-----|-------5---------|-3-------3-3-----|-------5---------|
E |-------3---------|-3---------------|-------3---------|-3---------------|
  1 & 2 & 3 & 4 &  1 & 2 & 3 & 4 &  1 & 2 & 3 & 4 &  1 & 2 & 3 & 4 &

G |-----------------|-----------------|-----------------|-----------------|
D |-----------------|------REST-------|-----------------|-----------------|
A |-3-------3-3-----|-----------------|-----------------|---------------2-|
E |-------3---------|-3---------------|-3  SLIDE----8-|-------------3---|
  1 & 2 & 3 & 4 &  1 & 2 & 3 & 4 &  1 & 2 & 3 & 4 &  1 & 2 & 3 & 4 &


VERSE 3
G |-----------------|-----------9-7---|-----------------|-----------9-7---|
D |-----------------|---------------5-|-----------------|---------------5-|
A |-3-----3-3-------|-3-----3-3-------|-3-----3-3-------|-3-----3-3-------|
E |-----------------|-----------------|-----------------|-----------------|
  1 & 2 & 3 & 4 &  1 & 2 & 3 & 4 &  1 & 2 & 3 & 4 &  1 & 2 & 3 & 4 &

G |-----------------|-----------------|-----------------|-----------9-7---|
D |---------5-5-----|-------------5---|-----------------|---------------5-|
A |-------5-----5---|-----------5---2-|-3-----3-3-------|-3-----3-3-------|
E |-3---------------|-3-3-3--3--------|-----------------|-----------------|
  1 & 2 & 3 & 4 &  1 & 2 & 3 & 4 &  1 & 2 & 3 & 4 &  1 & 2 & 3 & 4 &


VERSE 4
G |-----------------|-----------------|-----------------|-----------9-7---|
D |-----------------|-----------------|-----------------|---------------5-|
A |-3-----3-3-------|-3-----3-3-------|-3-----3-3-------|-3-----3-3-------|
E |-----------------|-----------------|-----------------|-----------------|
  1 & 2 & 3 & 4 &  1 & 2 & 3 & 4 &  1 & 2 & 3 & 4 &  1 & 2 & 3 & 4 &

G |-----------------|-----------------|-----------------|-----------------|
D |---------5-5-----|---------5-5-----|-----------------|-----------------|
A |-------5-----5---|-------5-----2---|-3-----3-3-------|-3-----3-3-2-3-4-|
E |-3---------------|-3---------------|-----------------|-----------------|
  1 & 2 & 3 & 4 &  1 & 2 & 3 & 4 &  1 & 2 & 3 & 4 &  1 & 2 & 3 & 4 &


PRE CHORUS
G |-----------------|-----------------|-----------------|-----------------|
D |-------------5---|-----------------|-2---------------|-----------------|
A |-5-------3-5-----|---------------2-|-----------------|-----------------|
E |---------------0-|-3-------0-3-3---|---------0-0-0-0-|-1-------1-1-1-1-|
  1 & 2 & 3 & 4 &  1 & 2 & 3 & 4 &  1 & 2 & 3 & 4 &  1 & 2 & 3 & 4 &

G |-----------------|-----------------|-----------------|-----------------|
D |-----------------|-----------------|-----------------|-----------2-3-5-|
A |-3-----3-3-------|-----------------|-3-3-3-3-3-3-3-3-|-----2-3-5-------|
E |-----------------|-3-----3-3-------|-----------------|-3-5-------------|
  1 & 2 & 3 & 4 &  1 & 2 & 3 & 4 &  1 & 2 & 3 & 4 &  1 & 2 & 3 & 4 &


CHORUS
G |-----------------|-----------------|-----------------|-----------------|
D |-----------------|---------5-5-----|-----------------|--------5-5------|
A |-3-------3-3-----|-------5---------|-3-------3-3-----|-------5---------|
E |-------3---------|-3---------------|-------3---------|-3---------------|
  1 & 2 & 3 & 4 &  1 & 2 & 3 & 4 &  1 & 2 & 3 & 4 &  1 & 2 & 3 & 4 &

G |-----------------|-----------------|-----------------|-----------------|
D |-----------------|------REST-------|-----------------|-----------------|
A |-3-------3-3-----|-----------------|-----------------|-----------------|
E |-------3---------|-3---------------|-3  SLIDE----8-|-----------------|
  1 & 2 & 3 & 4 &  1 & 2 & 3 & 4 &  1 & 2 & 3 & 4 &  1 & 2 & 3 & 4 &
ⓘ Bass guitar tab for 'They Shoot Horses Dont They' by Racing Cars, a pop band formed in 1973 from Rhondda Valley, Wales. They retired in 2010

Almost there ...

Sign in to get your own page with links to favourite songs and more. You are just one click away...

Login with Facebook Login with Google