Log in

One click and you are in

Login with Facebook Login with Google

Why sign up and log in

Guitar Tabs Explorer
Racer X bass tabs for Technical difficulties

Bass tabs with lyrics

Technical Difficulties

   W          W
G||--------------------|--------------------||
D||*-------------------|-------------------*||
A||*-------------------|-------------------*||
E||--------------------|--------------------||
                               |-3-| |-3-|
 S S S S S S S S S S S S S S S S  S S S S S S S S S S S S S S S S S S
----------------------------------|--------------------------------------|
----------------------------------|--------------------------------------|
--3-3-3-3-3-3-3-3-3-3-3-3-3-3-3-3-|--3-3-3-3-3-3-3-3-3-3-3-3-3-3-3-3-3-3-|
----------------------------------|--------------------------------------|


                               |-3-| |-3-|
 S S S S S S S S S S S S S S S S  S S S S S S S S S S S S S S S S S S
----------------------------------|--------------------------------------|
----------------------------------|--------------------------------------|
----------------------------------|--------------------------------------|
--0-0-0-0-0-0-0-0-0-0-0-0-0-0-0-0-|--0-0-0-0-0-0-0-0-0-0-0-0-0-0-0-0-0-0-|


                               |-3-| |-3-|
 S S S S S S S S S S S S S S S S  S S S S S S S S S S S S S S S S S S
----------------------------------|--------------------------------------|
----------------------------------|--------------------------------------|
--3-3-3-3-3-3-3-3-3-3-3-3-3-3-3-3-|--3-3-3-3-3-3-3-3-3-3-3-3-3-3-3-3-3-3-|
----------------------------------|--------------------------------------|


                               |-3-| |-3-|
 S S S S S S S S S S S S S S S S  S S S S S S S S S S S S S S S S S S
----------------------------------|--------------------------------------|
----------------------------------|--------------------------------------|
----------------------------------|--------------------------------------|
--0-0-0-0-0-0-0-0-0-0-0-0-0-0-0-0-|--0-0-0-0-0-0-0-0-0-0-0-0-0-0-0-0-0-0-|

                               |-3-| |-3-|
 S S S S S S S S S S S S S S S S  S S S S S S S S S S S S S S S S S S
----------------------------------|--------------------------------------|
----------------------------------|--------------------------------------|
--3-3-3-3-3-3-3-3-3-3-3-3-3-3-3-3-|--3-3-3-3-3-3-3-3-3-3-3-3-3-3-3-3-3-3-|
----------------------------------|--------------------------------------|


                               |-3-| |-3-|
 S S S S S S S S S S S S S S S S  S S S S S S S S S S S S S S S S S S
----------------------------------|--------------------------------------|
----------------------------------|--------------------------------------|
----------------------------------|--------------------------------------|
--0-0-0-0-0-0-0-0-0-0-0-0-0-0-0-0-|--0-0-0-0-0-0-0-0-0-0-0-0-0-0-0-0-0-0-|


            |-3-| |-3-|             |-3-| |-3-|
 S S S S S S S S S E. S S S S S S  S S S S S S S S S E. S S S S S S
------------------------------------|------------------------------------|
------------------------------------|------------------------------------|
------------------------------------|--2-2-2-2-2-2-2-2-2-2---2-2-2-2-2-2-|
--3-3-3-3-3-3-3-3-3-3---3-3-3-3-3-3-|------------------------------------|


         S S S S S S S S S S S S S S S S
-------|-------|----------------------------------|
-------|-------|----------------------------------|
-------|-------|--3-3-3-3-3-3-3-3-3-3-3-3-3-3-3-3-|
-------|-------|----------------------------------|


             |-3-| |-3-|
 S S S S S S S S S S S S S S S S S S  S S S S S S S S S S S S S S S S
--------------------------------------|----------------------------------|
--------------------------------------|----------------------------------|
--3-3-3-3-3-3-3-3-3-3-3-3-3-3-3-3-3-3-|----------------------------------|
--------------------------------------|--0-0-0-0-0-0-0-0-0-0-0-0-0-0-0-0-|


             |-3-| |-3-|
 S S S S S S S S S S S S S S S S S S  S S S S S S S S S S S S S S S S
--------------------------------------|----------------------------------|
--------------------------------------|----------------------------------|
--------------------------------------|--3-3-3-3-3-3-3-3-3-3-3-3-3-3-3-3-|
--0-0-0-0-0-0-0-0-0-0-0-0-0-0-0-0-0-0-|----------------------------------|


             |-3-| |-3-|
 S S S S S S S S S S S S S S S S S S  S S S S S S S S S S S S S S S S
--------------------------------------|----------------------------------|
--------------------------------------|----------------------------------|
--3-3-3-3-3-3-3-3-3-3-3-3-3-3-3-3-3-3-|----------------------------------|
--------------------------------------|--0-0-0-0-0-0-0-0-0-0-0-0-0-0-0-0-|


             |-3-| |-3-|
 S S S S S S S S S S S S S S S S S S  S S S S S S S S S S S S S S S S
--------------------------------------|----------------------------------|
--------------------------------------|----------------------------------|
--------------------------------------|--3-3-3-3-3-3-3-3-3-3-3-3-3-3-3-3-|
--0-0-0-0-0-0-0-0-0-0-0-0-0-0-0-0-0-0-|----------------------------------|


             |-3-| |-3-|
 S S S S S S S S S S S S S S S S S S  S S S S S S S S S S S S S S S S
--------------------------------------|----------------------------------|
--------------------------------------|----------------------------------|
--3-3-3-3-3-3-3-3-3-3-3-3-3-3-3-3-3-3-|----------------------------------|
--------------------------------------|--0-0-0-0-0-0-0-0-0-0-0-0-0-0-0-0-|


             |-3-| |-3-|             |-3-| |-3-|
 S S S S S S S S S S S S S S S S S S  S S S S S S S S S E. S S S S S S
--------------------------------------|------------------------------------|
--------------------------------------|------------------------------------|
--------------------------------------|------------------------------------|
--0-0-0-0-0-0-0-0-0-0-0-0-0-0-0-0-0-0-|--3-3-3-3-3-3-3-3-3-3---3-3-3-3-3-3-|


            |-3-| |-3-|
 S S S S S S S S S E. S S S S S S  W          W
------------------------------------|-------------------|-------------------|
------------------------------------|-------------------|-------------------|
--2-2-2-2-2-2-2-2-2-2---2-2-2-2-2-2-|-------------------|-------------------|
------------------------------------|-------------------|-------------------|


 W          W          S S S S S S S S S E.  Q
-------------------|-------------------|------------------------------|
-------------------|-------------------|--2-2-0---0-------------------|
-------------------|-------------------|--------2---2-0---0-----------|
-------------------|-------------------|----------------3---3~---0----|


 S S S S S S S S S E.  Q    S S S S S S S S S S S S S S S S
--9-9-7---7---------------------|----------------------------------|
--------9---9-7----7------------|----------------------------------|
----------------10---10~---7----|----------------------------------|
--------------------------------|--5-5-3-0-5-5-3-0-5-3-0-5---5-3-0-|


 S S S S S S S S S S S S S S S S  S S S S S S S S S E.  Q
----------------------------------|------------------------------|
----------------------------------|--2-2-0---0-------------------|
----------------------------------|--------2---2-0---0-----------|
--5-5-3-0-5-5-3-0-5-3-0-5---5-3-0-|----------------3---3~---0----|


 S S S S S S S S S E.  Q     S S S S S S S S S S S S S S S S
--9-9-7---7---------------------||-----------------------------------|
--------9---9-7----7------------||*----------------------------------|
----------------10---10~---7----||*----------------------------------|
--------------------------------||---5-5-3-0-5-5-3-0-5-3-0-5---5-3-0-|


 S S S S S S S S S S S S S S S S  S S S S S S S S S S S S S S S S
----------------------------------|----------------------------------|
----------------------------------|----------------------------------|
--2-2-0---2-2-0---2-0---2---2-0---|--3-3-2-0-3-3-2-0-3-2-0-3---3-2-0-|
--------2-------2-----2---------2-|----------------------------------|


 S S S S S S S S S S S S S S E    S S S S S S S S E S S S S E
----------------------------------||----------------------------------|
------------------2-0-4-0-5-0-7--*||------------------7--9-7-10-7-12--|
--5-5-3-0-5-5-3-0----------------*||--5-5-3-0-5-5-3-0-----------------|
----------------------------------||----------------------------------|

      |-3-|
 S S S S S S S S S S E. E S S  E E  Q    W
--9-9-7---7--------------------2---|--------------|--------------------|
--------9---9-8-7----7-----------5-|--L--2b-------|--------------------|
------------------10---10---7------|---------0----|--5-----------------|
-----------------------------------|--------------|--------------------|


 W          W          W
-------------------|-------------------|-------------------|
-------------------|-------------------|-------------------|
--L----------------|--L----------------|--L----------------|
-------------------|-------------------|-------------------|


   |-3-|    |-3-|        |-3-|    |-3-|
 E S S S E E S S S E E E   E S S S E E S S S E S S S S
--------------------------------|----------------------------------|
--2-----------2-----------------|--2-----------2-------------------|
--------------------------------|----------------------------------|
-----0-0-0-0-----0-0-0-0--0--0--|-----0-0-0-0-----0-0-0-0--0-0-0-0-|


   |-3-|    |-3-|        |-3-|    |-3-|
 E S S S E E S S S E E E   E S S S E E S S S E S S S S
--------------------------------|----------------------------------|
--5-----------5-----------------|--5-----------5-------------------|
--------------------------------|----------------------------------|
-----0-0-0-0-----0-0-0-0--0--0--|-----0-0-0-0-----0-0-0-0--0-0-0-0-|


   |-3-|    |-3-|        |-3-|    |-3-|
 E S S S E E S S S E E E   E S S S E E S S S E S S S S
--------------------------------|----------------------------------|
--7-----------7-----------------|--7-----------7-------------------|
--------------------------------|----------------------------------|
-----0-0-0-0-----0-0-0-0--0--0--|-----0-0-0-0-----0-0-0-0--0-0-0-0-|


   |-3-|    |-3-|         |-3-|    |-3-|
  E S S S E  E S S S E E E   E S S S E  E S S S E S S S S
----------------------------------|------------------------------------|
--10-----------10-----------------|--10-----------10-------------------|
----------------------------------|------------------------------------|
------0-0-0-0------0-0-0-0--0--0--|------0-0-0-0------0-0-0-0--0-0-0-0-|


   |-3-|    |-3-|        |-3-|    |-3-|
 E S S S E E S S S E E E   E S S S E E S S S E S S S S
--------------------------------|----------------------------------|
--2-----------2-----------------|--2-----------2-------------------|
--------------------------------|----------------------------------|
-----0-0-0-0-----0-0-0-0--0--0--|-----0-0-0-0-----0-0-0-0--0-0-0-0-|


   |-3-|    |-3-|        |-3-|    |-3-|
 E S S S E E S S S E E E   E S S S E E S S S E S S S S
--------------------------------|----------------------------------|
--5-----------5-----------------|--5-----------5-------------------|
--------------------------------|----------------------------------|
-----0-0-0-0-----0-0-0-0--0--0--|-----0-0-0-0-----0-0-0-0--0-0-0-0-|


   |-3-|    |-3-|        |-3-|    |-3-|
 E S S S E E S S S E E E   E S S S E E S S S E S S S S
--------------------------------|----------------------------------|
--7-----------7-----------------|--7-----------7-------------------|
--------------------------------|----------------------------------|
-----0-0-0-0-----0-0-0-0--0--0--|-----0-0-0-0-----0-0-0-0--0-0-0-0-|


   |-3-|    |-3-|         |-3-|    |-3-|
  E S S S E  E S S S E E E   E S S S E  E S S S E S S S S
----------------------------------|------------------------------------|
--10-----------10-----------------|--10-----------10-------------------|
----------------------------------|------------------------------------|
------0-0-0-0------0-0-0-0--0--0--|------0-0-0-0------0-0-0-0--0-0-0-0-|


   |-3-|    |-3-|         |-3-|    |-3-|
  E S S S E  E S S S E E E   E S S S E  E S S S E S S S S
----------------------------------|------------------------------------|
--10-----------10-----------------|--10-----------10-------------------|
----------------------------------|------------------------------------|
------0-0-0-0------0-0-0-0--0--0--|------0-0-0-0------0-0-0-0--0-0-0-0-|


 W          W          W          W
-------------------|-------------------|-------------------|-------------------|
-------------------|--2----------------|-------------------|-------------------|
-------------------|-------------------|--5----------------|--L----------------|
--0----------------|-------------------|-------------------|-------------------|


 H.      Q    H.      Q     W
--------------------|----------------------|-------------------|
--------------------|----------------------|-------------------|
--3------------2----|--0-------------------|-------------------|
--------------------|---------------3b~----|--0----------------|


 W          W          W          W
-------------------|-------------------|-------------------|-------------------|
--2----------------|-------------------|--2----------------|-------------------|
-------------------|-------------------|-------------------|--5----------------|
--L----------------|--0----------------|-------------------|-------------------|


 W          H.      Q    H.      Q
-------------------|--------------------|----------------------|
-------------------|--------------------|----------------------|
--L----------------|--3------------2----|--0-------------------|
-------------------|--------------------|---------------3b~----|


 W          W          W          W
-------------------|-------------------|-------------------|-------------------|
-------------------|--2----------------|-------------------|--2----------------|
-------------------|-------------------|-------------------|-------------------|
--0----------------|--L----------------|--0----------------|-------------------|


 W          W          H.      Q
-------------------|-------------------|--------------------|
-------------------|-------------------|--------------------|
--5----------------|--L----------------|--3------------2----|
-------------------|-------------------|--------------------|


 H.      Q     W          W
----------------------|-------------------|-------------------|
----------------------|-------------------|--2----------------|
--0-------------------|-------------------|-------------------|
---------------3b~----|--0----------------|--L----------------|


 W          W          W          W
-------------------|-------------------|-------------------|-------------------|
-------------------|--2----------------|-------------------|-------------------|
-------------------|-------------------|--5----------------|--L----------------|
--0----------------|-------------------|-------------------|-------------------|


 H.      Q    H.      Q     W
--------------------|----------------------|-------------------|
--------------------|----------------------|-------------------|
--3------------2----|--0-------------------|-------------------|
--------------------|---------------3b~----|--0----------------|


 W          S S S S S S S S S S S S S S S S
-------------------|----------------------------------|
--2----------------|----------------------------------|
-------------------|--3-3-3-3-3-3-3-3-3-3-3-3-3-3-3-3-|
-------------------|----------------------------------|


             |-3-| |-3-|
 S S S S S S S S S S S S S S S S S S  S S S S S S S S S S S S S S S S
--------------------------------------|----------------------------------|
--------------------------------------|----------------------------------|
--3-3-3-3-3-3-3-3-3-3-3-3-3-3-3-3-3-3-|----------------------------------|
--------------------------------------|--0-0-0-0-0-0-0-0-0-0-0-0-0-0-0-0-|


             |-3-| |-3-|
 S S S S S S S S S S S S S S S S S S  S S S S S S S S S S S S S S S S
--------------------------------------|----------------------------------|
--------------------------------------|----------------------------------|
--------------------------------------|--3-3-3-3-3-3-3-3-3-3-3-3-3-3-3-3-|
--0-0-0-0-0-0-0-0-0-0-0-0-0-0-0-0-0-0-|----------------------------------|


             |-3-| |-3-|
 S S S S S S S S S S S S S S S S S S  S S S S S S S S S S S S S S S S
--------------------------------------|----------------------------------|
--------------------------------------|----------------------------------|
--3-3-3-3-3-3-3-3-3-3-3-3-3-3-3-3-3-3-|----------------------------------|
--------------------------------------|--0-0-0-0-0-0-0-0-0-0-0-0-0-0-0-0-|


             |-3-| |-3-|
 S S S S S S S S S S S S S S S S S S  S S S S S S S S S S S S S S S S
--------------------------------------|----------------------------------|
--------------------------------------|----------------------------------|
--------------------------------------|--3-3-3-3-3-3-3-3-3-3-3-3-3-3-3-3-|
--0-0-0-0-0-0-0-0-0-0-0-0-0-0-0-0-0-0-|----------------------------------|


             |-3-| |-3-|
 S S S S S S S S S S S S S S S S S S  S S S S S S S S S S S S S S S S
--------------------------------------|----------------------------------|
--------------------------------------|----------------------------------|
--3-3-3-3-3-3-3-3-3-3-3-3-3-3-3-3-3-3-|----------------------------------|
--------------------------------------|--0-0-0-0-0-0-0-0-0-0-0-0-0-0-0-0-|


             |-3-| |-3-|             |-3-| |-3-|
 S S S S S S S S S S S S S S S S S S  S S S S S S S S S E. S S S S S S
--------------------------------------|------------------------------------|
--------------------------------------|------------------------------------|
--------------------------------------|------------------------------------|
--0-0-0-0-0-0-0-0-0-0-0-0-0-0-0-0-0-0-|--3-3-3-3-3-3-3-3-3-3---3-3-3-3-3-3-|


            |-3-| |-3-|
 S S S S S S S S S E. S S S S S S  W          W
------------------------------------|-------------------|-------------------|
------------------------------------|-------------------|-------------------|
--2-2-2-2-2-2-2-2-2-2---2-2-2-2-2-2-|-------------------|-------------------|
------------------------------------|-------------------|-------------------|


 W          W          H
-------------------|-------------------|--------------------|
-------------------|-------------------|--------------------|
-------------------|-------------------|--------------------|
-------------------|-------------------|--5--------3--------|


 H    H      S S S S S S S S S S S S S S S S
--------------------|----------------------------------|
--------------------|----------------------------------|
-----------7--------|----------------------------------|
--0-----------------|--0-0-0-0-0-0-0-0-0-0-0-0-0-0-0-0-|


 S S S S S S S S S S S S S S S S  S S S S S S S S S S S S S S S S
----------------------------------|----------------------------------|
----------------------------------|----------------------------------|
----------------------------------|----------------------------------|
--0-0-0-0-0-0-0-0-0-0-0-0-0-0-0-0-|--0-0-0-0-0-0-0-0-0-0-0-0-0-0-0-0-|


 S S S S S S S S S S S S S S S S  S S S S S S S S S S S S S S S S
----------------------------------|----------------------------------|
----------------------------------|----------------------------------|
----------------------------------|----------------------------------|
--0-0-0-0-0-0-0-0-0-0-0-0-0-0-0-0-|--0-0-0-0-0-0-0-0-0-0-0-0-0-0-0-0-|


 W          W
-------------------|-------------------||
-------------------|-------------------||
-------------------|-------------------||
-------------------|-------------------||


Duration Legend
---------------
W - whole
H - half
Q - quarter
E - 8th
S - 16th
T - 32nd
X - 64th
. - note dotted
|-n-| - n-tuplets


Tablature Legend
----------------
L - tied note
x - dead note
g - grace note
(n) - ghost note
> - accentuded note
NH - natural harmonic
AH - artificial harmonic
TH - tapped harmonic
SH - semi harmonic
PH - pitch harmonic
h - hammer on
p - pull off
b - bend
br - bendRelease
pb - preBend
pbr - preBendRelease
brb - bendReleaseBend
\n/ - tremolo bar dip
\n - tremolo bar dive
-/n - tremolo bar Release up
/n\ - tremolo bar inverted dip
/n - tremolo bar return
-\n - tremolo bar Release down
S - shift slide
s - legato slide
/ - slide into from below or out of upwards
\ - slide into from above or out of downwards
~ - vibrato
W - wide vibrato
tr - trill
TP - tremolo picking
T - tapping
S - slap
P - pop
< - fade in
^ - brush up

Almost there ...

Sign in to get your own page with links to favourite songs and more. You are just one click away...

Login with Facebook Login with Google