GuitarTabsExplorer icon
GuitarTabsExplorer icon

Log in

Songbook

  • Log in to add and see bookmarks

Last visited songs

    No songs visited yet...

Wicked Game by Rabea Massaad

Wicked Game bass tab by Rabea Massaad

Bass tabs with lyrics

  • Difficulty: Beginner
Key: A

ğŸŽ¸ Verse :
  Bm   A    E   E
  Q. E M  Q. E M  Q. E M  Q. E M
G|--------|---------|--------|-------|
D|--------|---------|--------|-------|
A|-2--2-2-|--0--0-0-|--------|-------|
E|--------|---------|-0--0-0-|-0--0-0|



ğŸŽ¸ Chorus:
I quite like to crank my volume up or smack on a drive pedal for the chorus to bring dynamic
contrast into the song.

  Bm   A    E   E
  Q. E M  Q. E M  Q. E M  Q. E M
G|--------|---------|--------|-------|
D|--------|---------|--------|-------|
A|-2--2-2-|--0--0-0-|--------|-------|
E|--------|---------|-0--0-0-|-0--0-0|
ğŸŽ¸ Outro:
Let the last open-E note ring out whilst using your volume knob to fade out. It creates a nice
mellow feeling to end the song and juxtaposes beautifully with the driven nature of the chorus.

  Bm   A    E   E
  Q. E M  Q. E M  Q. E M  W
G|--------|---------|--------|-------|
D|--------|---------|--------|-------|
A|-2--2-2-|--0--0-0-|--------|-------|
E|--------|---------|-0--0-0-|-0~~~~~|

Make sure to add those fills and slides!!! :)

******************************
| Q Quarter note (Crotchet)
| E Eighth note (Quaver)
| M Half note (Minim)
| Q. Dotted quarter note (Equal to "Q+E" in length)
| ~ Let the note ring

******************************

[ Privacy | About us ]

Welcome to the guitar community

Why join and log in?
- Get songbook with favourite songs
- Get custom made front page
- Submit chords and tabs
- Submit guitar-cover videos
- Get a lot of thumbs up for your work

Songbook

Last visited songs

Site
Home
Search
Community
Submit chords
Submit video

Video

No video for this page. Check out how you can submit guitar-cover videos here

Search tabs and chords

Browse by artist

A B C D E F G H I J K L M N O P Q R S T U V W X Y Z #


Menu

Search

Video

Bookmark

Login