Log in

One click and you are in

Login with Facebook Login with Google

Why sign up and log in

Guitar Tabs Explorer
Ra Ra Riot bass tabs for The orchard

Bass tabs

By RA RA RIOT

notes: Except for the chorus which is 4/4, the time signature is 6/4 with 2
beats in a measure then 4. Each "x" above the chart is a beat and the notes
are aligned to be accurate with them.
  x x  x x x x  x x
G|------|------------|-9999-|
D|------|------------|------|
A|------|------------|------|
E|------|------------|------|

  x x x x  x x  x x x x  x x  x x x x
G|------------|-5-79~|------------|------|------------|
D|------------|------|------------|------|------------|
A|-12~---7~---|------|-8--8-7-----|------|----------7-|
E|------------|------|-------8~---|------|78-78-------|

  x x x x  x x  x x x x  x x  x x x x
G|------------|-5-79~|------------|------|------------|
D|------------|------|------------|------|------------|
A|-12~---7~---|------|-8--8-7-----|------|----------7-|
E|------------|------|-------8~---|------|78--8-------|

  x x x x  x x  x x x x  x x  x x x x
G|------------|-5-79~|------------|------|------------|
D|------------|------|------------|------|------------|
A|-12~---7~---|------|-8--8-7-----|------|------------|
E|------------|------|-------8~---|------|78-78-------|

  x x x x  x x  x x x x  x x  x x x x
G|------------|-5-79~|------------|------|------------|
D|------------|------|------------|------|------------|
A|-12~---7~---|------|-8--8-7-----|------|------------|
E|------------|------|-------8~---|------|78----------|

  x x x x  x x  x x x x  x x  x x x x
G|------------|-5999~|------------|------|------------|
D|------------|------|------------|------|------------|
A|-12~---7~---|------|-8--8-7-----|------|-7--7-------|
E|------------|------|-------8~---|----78|7------1--3-|

  x x x x  x x  x x x x  x x  x  x  x  x
G|------------|------|------------|------|--------------------|
D|------------|------|------------|------|--10-12--10---------|
A|----------5-|-7~---|-8~---7-----|------|12------------12-10-|
E|-5--7--8----|------|-------8~---|------|--------------------|

  x x x x  x x x x  x x x x  x x x x  x x x x
G|------------|------------|------------|-------9--97|---------7--|
D|------------|------------|------------|------------|-9~---79---9|
A|------------|-7~---------|-8~-------7-|-10~--------|------------|
E|------------|----------78|7-----------|------------|------------|

  x x x x  x x x x  x x x x  x x x x
G|------------|------------|-------9--97|----------777|
D|------------|------------|------------|-9~---79-----|
A|-7~---------|------------|-10~--------|-------------|
E|----------03|-1~-------1/|------------|-------------|

  x x x x
G|------------|
D|------------|
A|------------| x8 (I believe)
E|------------|

  x x x x  x x  x x x x  x x  x x x x
G|------------|-5-79~|------------|------|------------|
D|------------|------|------------|------|------------|
A|-12~---7~---|------|-8--8-7-----|------|------------|
E|------------|------|-------8~---|------|78-78-------|

  x x x x  x x  x x x x  x x  x x x x
G|------------|-5797~|------------|------|------------|
D|------------|------|------------|------|------------|
A|-12~---7~---|------|-8--8-7-----|------|----------7-|
E|------------|------|-------8~---|------|78--8--8----|

  x x x x  x x  x x x x  x x  x x x x
G|------------|5/999~|------------|------|------------|
D|------------|------|------------|------|------------|
A|-12~---7~---|------|-8----7-----|------|-7-77-------|
E|------------|------|-------8~---|---787|-------1--3-|

  x x x x  x x x x  x x x x  x x x x  x x x x
G|------------|------------|------------|-------9---7|---------7--|
D|------------|------------|------------|------------|-9~---79---9|
A|----------5-|-7~---------|-8~-------7-|-10~--------|------------|
E|-5--7--8----|---------78-|------------|------------|------------|

  x x x x  x x x x  x x x x  x x x x
G|------------|------------|-------9--97|---------7---|
D|------------|------------|------------|-9~---79--9--|
A|-7~---------|------------|-10~--------|-------------|
E|----------03|-1-------01/|------------|-------------|

  x x x x  x x x x  x x x x  x x x x
G|------------|------------|-------9---7|----------7~-|
D|------------|------------|------------|-9~---79-----|
A|-7~---------|-8~---------|-10~--------|-------------|
E|----------8-|----------8-|------------|-------------|

  x x x x  x x x x  x x x x  x x x x
G|------------|------------|-------9--97|----------7--|
D|------------|------------|------------|-9~---79-----|
A|-7~---------|------------|-10~--------|-------------|
E|----------03|-1-------01/|------------|-------------|
-REST while piano and violin play


   x   x   x   x  x x x x  x x x x  x x x x
G|12h14-12h14-12h14-12----|------------|-------9--97|---------77-|
D|---------------------14-|------------|------------|-9~---79----|
A|------------------------|-8~-------7-|-10~--------|------------|
E|------------------------|------7-----|------------|------------|

  x x x x  x x x x  x x x x  x x x x
G|------------|------------|-------9--97|----------7~-|
D|------------|------------|------------|-9~---79-----|
A|-7~---------|------------|-10~--------|-------------|
E|----------03|-1-------01/|------------|-------------|

  x x x x  x x x x  x x x x  x x x  x
G|----------9-|-------997--|-------9--97|-------14-12---|
D|------------|----------9-|------------|-9~---------10-|
A|-7~---------|-8~---------|-10~--------|---------------|
E|------------|------------|------------|---------------|

  x x x x  x x x x  x x x x  x x x x
G|------------|------------|-------9--97|---------7~--|
D|------------|------------|------------|-9~---79-----|
A|-7~---------|------------|-10~--------|-------------|
ⓘ Bass guitar tab for 'The Orchard' by Ra Ra Riot, an indie band formed in 2006 from Syracuse, New York

Almost there ...

Sign in to get your own page with links to favourite songs and more. You are just one click away...

Login with Facebook Login with Google