Log in

One click and you are in

Login with Facebook Login with Google

Why sign up and log in

Guitar Tabs Explorer
Ra tabs for Only

Guitar tabs

You must be tuned in A chord diagramD MajorD for this song to work

Slide=/

E-------------------------------------------
B-------------------------------------------
G-------------------------------------------
D----2-3-2-1-0------2-3-2-0-1-----2-3-2-1-0-
A-0-0-----------0-0-----------0-0-----------
D-0-0-----------0-0-----------0-0-----------


E-------------------------------------------
B-------------------------------------------
G-------------------------------------------
D-----2-3-2-5/3-----------------------------
A-0-0---------------------------------------
D-0-0---------------------------------------
Repeat this once more then thats the beggining of the song!
The rest of the song should be real easy because
it basically uses all the same notes as this!
This is my first one so its not to great but i think it will do!
Have fun and i hope you enjoy playing the guitar!

ⓘ Guitar tab for 'Only' by Ra, a male hard rock artist from Los Angeles, California, USA. Ra was born in 2002.

Almost there ...

Sign in to get your own page with links to favourite songs and more. You are just one click away...

Login with Facebook Login with Google