Log in

One click and you are in

Login with Facebook Login with Google

Why sign up and log in

Guitar Tabs Explorer
Ra tabs for Awake

Tabs

Drop A chord diagramC majorC Tuning (CGCFAD)


Intro
D---------------------------------------------------------------|
A---------------------------------------------------------------|
F---------------------------------------------------------------|
C-0--0--0-0-7-7-8--8--8-8-3-3-5--5--5-5-0-0-8-8--8--8-7-7-7-7-7-|  X2
G-0--0--0-0-7-7-8--8--8-8-3-3-5--5--5-5-0-0-8-8--8--8-7-7-7-7-7-|
C-0--0--0-0-7-7-8--8--8-8-3-3-5--5--5-5-0-0-8-8--8--8-7-7-7-7-7-|

D-------------------------|
A------6---6------6----6--|
F-----10--10-----10---10--|
C-------------------------|  X2
G-x-x---x----x-x----x-----|
C-x-x---x----x-x----x-----|

D-------------------------|
A-------------------------|
F-------------------------|
C-3---7---10--------------|
G-3---7---10--------------|
C-3---7---10--------------|



Verse
......................P.M................   ...
D-------------------------------------------------|
A-------------------------------------------------|
F-------------------------------------------------|
C-------------------------------------------------|  X2
G-5-5-5---0-0-0---8-8-8----10-10-10---0-0-8-0-0-5-|
C-5-5-5---0-0-0---8-8-8----10-10-10---0-0-8-0-0-5-|

Chorus
D---------------------------------------------------------------|
A---------------------------------------------------------------|
F---------------------------------------------------------------|
C-0--0--0-0-7-7-8--8--8-8-3-3-5--5--5-5-0-0-8-8--8--8-7-7-7-7-7-|  X2
G-0--0--0-0-7-7-8--8--8-8-3-3-5--5--5-5-0-0-8-8--8--8-7-7-7-7-7-|
C-0--0--0-0-7-7-8--8--8-8-3-3-5--5--5-5-0-0-8-8--8--8-7-7-7-7-7-|

D-------------------------|
A------6---6------6----6--|
F-----10--10-----10---10--|
C-------------------------|  X2
G-x-x---x----x-x----x-----|
C-x-x---x----x-x----x-----|

D-------------------------|
A-------------------------|
F-------------------------|
C-3---7---10--------------|
G-3---7---10--------------|
C-3---7---10--------------|



Verse
......................P.M................   ...
D-------------------------------------------------|
A-------------------------------------------------|
F-------------------------------------------------|
C-------------------------------------------------|  X2
G-5-5-5---0-0-0---8-8-8----10-10-10---0-0-8-0-0-5-|
C-5-5-5---0-0-0---8-8-8----10-10-10---0-0-8-0-0-5-|



Chorus
D---------------------------------------------------------------|
A---------------------------------------------------------------|
F---------------------------------------------------------------|
C-0--0--0-0-7-7-8--8--8-8-3-3-5--5--5-5-0-0-8-8--8--8-7-7-7-7-7-|  X2
G-0--0--0-0-7-7-8--8--8-8-3-3-5--5--5-5-0-0-8-8--8--8-7-7-7-7-7-|
C-0--0--0-0-7-7-8--8--8-8-3-3-5--5--5-5-0-0-8-8--8--8-7-7-7-7-7-|



Bridge
D----------------------------------------------------------|
A----------------------------------------------------------|
F----------------------------------------------------------|
C-7--7--7-7-0-0-8--8--8-8-3-3-5--5--5-5-0-0-8-8--8--8-7--7-|
G-7--7--7-7-0-0-8--8--8-8-3-3-5--5--5-5-0-0-8-8--8--8-7--7-|
C-7--7--7-7-0-0-8--8--8-8-3-3-5--5--5-5-0-0-8-8--8--8-7--7-|

D-------------------------------------------------------|
A-------------------------------------------------------|
F-------------------------------------------------------|
C-7--7--7-7-0-0-8--8--8-8-3-3-5--5--5-5-0-0-8-8-8-8-8-8-|
G-7--7--7-7-0-0-8--8--8-8-3-3-5--5--5-5-0-0-8-8-8-8-8-8-|
C-7--7--7-7-0-0-8--8--8-8-3-3-5--5--5-5-0-0-8-8-8-8-8-8-|

D-------------|
A-------------|
F-0---8---5---|
C-0---8---5---|
G-0---8---5---|



Chorus\Outro
D---------------------------------------------------------------|
A---------------------------------------------------------------|
F---------------------------------------------------------------|
C-0--0--0-0-7-7-8--8--8-8-3-3-5--5--5-5-0-0-8-8--8--8-7-7-7-7-7-|  X4
G-0--0--0-0-7-7-8--8--8-8-3-3-5--5--5-5-0-0-8-8--8--8-7-7-7-7-7-|
C-0--0--0-0-7-7-8--8--8-8-3-3-5--5--5-5-0-0-8-8--8--8-7-7-7-7-7-|

D-------------------------|
A------6---6------6----6--|
F-----10--10-----10---10--|
C-------------------------|
G-x-x---x----x-x----x-----|
ⓘ Guitar tab for 'Awake' by Ra, a male hard rock artist from Los Angeles, California, USA. Ra was born in 2002.

Almost there ...

Sign in to get your own page with links to favourite songs and more. You are just one click away...

Login with Facebook Login with Google