Guitar Tabs Explorer
R5 bass tabs for Things are looking up

Things Are Looking Up bass tab by R5

R5 bass tabs for Things are looking up

Bass tabs

  • Difficulty: Beginner
Key: G

🎸 Verse 1: (0:21-0:29)
G|---------------------|
D|---------------------|
A|-------3-----7-----5-|
E|-3-------------------|

🎸 Pre-Chorus 1: (0:32-0:40)
G|-----------------|---------------|--------------|
D|-----------------|---------------|-----------12-|
A|-------------5h3-|-3---3-----3h5-|-7---7--------|
E|-3---3-----3-----|---------------|--------------|


🎸 Chorus 1: (0:43-1:04)
G|-------------|-----------------|-----------------|-----------------|
D|-------------|-----------------|-----------------|-----------------|
A|-------------|-----------------|-3-3-3-3-3-3-3-3-|-3-3-3-3-3-3-3-3-|
E|-3---3---3-3-|-3-3-3-3-3-3-3-3-|-----------------|-----------------|

G|-----------------|-----------------|-----------------|------------------|
D|-----------------|-----------------|-----------------|------------------|
A|-7-7-7-7-7-7-7-7-|-7-7-7-7-7-7-7-7-|-5-5-5-5-5-5-5-5-|-5-5-5/-17-17-17\-|
E|-----------------|-----------------|-----------------|------------------|

G|-------------|-----------------|-----------------|-----------------|
D|-------------|-----------------|-----------------|-----------------|
A|-------------|-----------------|-3-3-3-3-3-3-3-3-|-3-3-3-3-3-3-3-3-|
E|-3---3---3-3-|-3-3-3-3-3-3-3-3-|-----------------|-----------------|

G|-----------------|-----------------|-----------------|------------------|
D|-----------------|-----------------|-----------------|------------------|
A|-7-7-7-7-7-7-7-7-|-7-7-7-7-7-7-7-7-|-5-5-5-5-5-5-5-5-|-5-5-5-5-5-5-5\---|
E|-----------------|-----------------|-----------------|----------------3-|
🎸 Post-Chorus 1: (1:06)
G|---|
D|---|
A|---|
E|-3-|


🎸 Verse 2: (1:07-1:17)
G|-----------------|---------------|--------------|----------7-7-7-7-|
D|-----------------|---------------|--------------|------------------|
A|-------------5h3-|-3---3-----3h5-|-7---7-----7--|-5--5-------------|
E|-3---3-----3-----|---------------|--------------|------------------|


🎸 Pre-Chorus 2: (1:18-1:28)
G|-----------------|---------------|--------------|-------------------|
D|-----------------|---------------|--------------|-------------------|
A|-------------5h3-|-3---3-----3h5-|-7---7----7\--|-5/10---5/10--5/10-|
E|-3---3-----3-----|---------------|--------------|------------------|


🎸 Chorus 2: (1:29-1:50)
G|-------------|-----------------|-----------------|-----------------|
D|-------------|-----------------|-----------------|-----------------|
A|-------------|-----------------|-3-3-3-3-3-3-3-3-|-3-3-3-3-3-3-3-3-|
E|-3---3---3-3-|-3-3-3-3-3-3-3-3-|-----------------|-----------------|

G|-----------------|-----------------|----------------|-----------------------|
D|-----------------|-----------------|----------------|-----------------------|
A|-7-7-7-7-7-7-7-7-|-7-7-7-7-7-7-7-7-|-5-5-5-5-5-5-5/-|-17-17-17-17-17-17-17\-|
E|-----------------|-----------------|----------------|-----------------------|

G|-------------|-----------------|-----------------|-----------------|
D|-------------|-----------------|-----------------|-----------------|
A|-------------|-----------------|-3-3-3-3-3-3-3-3-|-3-3-3-3-3-3-3-3-|
E|-3---3---3-3-|-3-3-3-3-3-3-3-3-|-----------------|-----------------|

G|-----------------|-----------------|-----------------|-----------------|
D|-----------------|-----------------|-----------------|-----------------|
A|-7-7-7-7-7-7-7-7-|-7-7-7-7-7-7-7-7-|-5-5-5-5-5-5-5-5-|-5-5-5-5-5-5\----|
E|-----------------|-----------------|-----------------|---------------3-|


🎸 Post-Chorus 2: (1:52)
G|------|
D|------|
A|------|
E|-3--3-|


🎸 Bridge: (1:53-2:08)
G|---------------------|---------------------|---------------------|--------------------|
D|---------------------|---------------------|---------------------|--------------------|
A|-5/10---5/10--5/10---|-5/10---5/10--5/10---|-5/10---5/10--5/10---|-5/10---5/10-5/10---|
E|---------------------|---------------------|---------------------|--------------------|

G|---------------------|-------------------|
D|---------------------|-------------------|
A|-5/10---5/10--5/10---|-5/10---5/10--5/10-|
E|---------------------|-------------------|


🎸 Break: (2:14)
G|-------|
D|-------|
A|-------|
E|-3/15\-|


🎸 Chorus 3: (2:15-2:58)
G|-------------|-----------------|-----------------|-----------------|
D|-------------|-----------------|-----------------|-----------------|
A|-------------|-----------------|-3-3-3-3-3-3-3-3-|-3-3-3-3-3-3-3-3-|
E|-3---3---3-3-|-3-3-3-3-3-3-3-3-|-----------------|-----------------|

G|-----------------|-----------------|-----------------|----------------|
D|-----------------|-----------------|-----------------|----------------|
A|-7-7-7-7-7-7-7-7-|-7-7-7-7-7-7-7-7-|-5-5-5-5-5-5-5-5-|-5-5-5-5-5-5-5\-|
E|-----------------|-----------------|-----------------|----------------|

G|-------------|-----------------|-----------------|-----------------|
D|-------------|-----------------|-----------------|-----------------|
A|-------------|-----------------|-3-3-3-3-3-3-3-3-|-3-3-3-3-3-3-3-3-|
E|-3---3---3-3-|-3-3-3-3-3-3-3-3-|-----------------|-----------------|

G|-----------------|-----------------|----------------|-----------------------|
D|-----------------|-----------------|----------------|-----------------------|
A|-7-7-7-7-7-7-7-7-|-7-7-7-7-7-7-7-7-|-5-5-5-5-5-5-5/-|-17-17-17-17-17-17-17\-|
E|-----------------|-----------------|----------------|-----------------------|

G|-------------|-----------------|-----------------|-----------------|
D|-------------|-----------------|-----------------|-----------------|
A|-------------|-----------------|-3-3-3-3-3-3-3-3-|-3-3-3-3-3-3-3-3-|
E|-3---3---3-3-|-3-3-3-3-3-3-3-3-|-----------------|-----------------|

G|-----------------|-----------------|-----------------|------------------|
D|-----------------|-----------------|-----------------|------------------|
A|-7-7-7-7-7-7-7-7-|-7-7-7-7-7-7-7-7-|-5-5-5-5-5-5-5-5-|-5-5-5-5-5-5-5\---|
E|-----------------|-----------------|-----------------|----------------3-|


🎸 Outro: (3:00)
G|------|
D|------|
A|------|
E|-3--3-|


************************************

| h  Hammer-on
| /  Slide up
| \  Slide down

************************************
ⓘ Bass guitar tab for 'Things Are Looking Up' by R5, a pop-rock band formed in 2009 from Los Angeles, California, USA