Log in

One click and you are in

Login with Facebook Login with Google

Why sign up and log in

Guitar Tabs Explorer
R5 bass tabs for Stay with me

Bass tabs

Tuning: Standard (E A D G)

Difficulty: Novice

I made this tab for the Studio Session VEVO LIFT version because it seems
to me a cleaner and higher quality version than the album version.
Intro & verse:
No bass still. The bass enters at the pre-chorus.


Pre-chorus: (0:32-0:40)
G|-------|-----|------|---|
D|-------|-----|------|---|
A|-------|-----|-5----|---|
E|-6-----|-1---|------|-6-|


Chorus: (0:44-1:01)
G|-----------|-----------|-----------|--------------|
D|-----------|-----------|-----------|--------------|
A|-----------|-----------|-5--5--5---|--------------| (x2)
E|-1--1--1---|-0--0--0---|-----------|-6-6--6--6-6\-|


Verse 2: (1:10-1:12)
G|---------|-------|
D|---------|-------|
A|---------|-3h5p3-|
E|-1---1---|-------|


Pre-chorus 2: (1:19-1:30)
G|-----------|-----------|--------|
D|-----------|-----------|--------|
A|------5----|-1----3----|------5-|
E|-1---------|-----------|-1------|

Chorus 2: (1:36-2:10)
G|-----------|-----------|-----------|--------------|
D|-----------|-----------|-----------|--------------|
A|-----------|-----------|-5--5--5---|--------------| (x3)
E|-1--1--1---|-0--0--0---|-----------|-6-6--6--6-6\-|

G|-----------|-----------|-----------|---------------|
D|-----------|-----------|-----------|---------------|
A|-----------|-----------|-5--5--5---|---------------|
E|-1--1--1---|-0--0--0---|-----------|-6-6--6--6-6-6-|


Bridge: (2:11-2:28)
G|-----------------|-----------------|------------------|-----------------|
D|-----------------|-----------------|------------------|-----------------|
A|-5-5-5-5-5-5-5-5-|-----------------|------------------|-----------------|
E|-----------------|-6-6-6-6-6-6-6-6-|-1-1-1-1-1-1-1-1/-|-8-8-8-8-8-8-8-8-|

G|-----------------|-----------------|------------------|-------------|
D|-----------------|-----------------|------------------|-------------|
A|-5-5-5-5-5-5-5-5-|-----------------|------------------|-------------|
E|-----------------|-6-6-6-6-6-6-6-6-|-1-1-1-1-1-1-1-1/-|-8-8-8-8-8-8-|


Chorus 3: (2:37-3:11)
G|-----------|-----------|-----------|--------------|
D|-----------|-----------|-----------|--------------|
A|-----------|-----------|-5--5--5---|--------------|
E|-1--1--1---|-0--0--0---|-----------|-6-6--6--6-6\-|

G|-----------|-----------|-----------|---------------|
D|-----------|-----------|-----------|---------------|
A|-----------|-----------|-5--5--5---|---------------| (x3)
E|-1--1--1---|-0--0--0---|-----------|-6-6--6-6-6-6\-|

************************************

| p  Pull-off
| /  Slide up
| \  Slide down

************************************

Almost there ...

Sign in to get your own page with links to favourite songs and more. You are just one click away...

Login with Facebook Login with Google