Log in

One click and you are in

Login with Facebook Login with Google

Why sign up and log in

Guitar Tabs Explorer
R5 bass tabs for Pass me by

Bass tabs

Tuning: Drop D (D A D G)

Difficulty: Novice


Intro & verse:
No bass
Pre-chorus: (0:26-0:36)
G|-------------------|
D|-------------------|
A|-6-----------------| (x2)
D|------8----10----6-|


Chorus: (0:37-1:09)
G|-----------------------|
D|-----------------------|
A|-----------------------| (x4)
D|-1----8--8--10----6--6-|

G|-----------------------|
D|-----------------------|
A|-----------------------| (x2)
D|-1----8----10----6/18\-|


Verse 2: (1:30)
G|-------|
D|-------|
A|-6/18\-|
D|-------|


Pre-chorus 2: (1:31-1:40)
G|-------------------|
D|-------------------|
A|-6-----------------| (x2)
D|------8----10----6-|

Chorus 2: (1:42-2:13)
G|-----------------------|
D|-----------------------|
A|-----------------------| (x4)
D|-1----8--8--10----6--6-|

G|-----------------------|
D|-----------------------|
A|-----------------------| (x2)
D|-1----8----10----6/18\-|


Bridge: (2:24-2:35)
G|--------------------------|
D|--------------------------|
A|----6---------------------|
D|-4/------8--8--10----6--6-|

G|-----------------------|
D|-----------------------|
A|-6---------------------|
D|------8--8--10----6--6-|


Chorus 3: (2:46-3:15)
G|-----------------------|
D|-----------------------|
A|-----------------------| (x2)
D|-1----8--8--10----6--6-|

G|-----------------------|
D|-----------------------|
A|-1---------------------| (x3)
D|------8----10----6/16\-|

G|--------------|
D|--------------|
A|--------------|
D|-1----8----10-|


************************************

| /  Slide up
| \  Slide down

************************************

Almost there ...

Sign in to get your own page with links to favourite songs and more. You are just one click away...

Login with Facebook Login with Google