Guitar Tabs Explorer
R5 bass tabs for Nine lives

Bass tabs

  • Difficulty: Intermediate
🎸 Intro:
 (0:00-0:06)
G|------------------|--------------|
D|------------------|--------------|
A|-1/-6-6---6-6-6---|-6-6-6---6-6\-| x2
E|------------------|--------------|
B|------------------|--------------|

🎸 Verse 1: (0:07-0:33)
G|------------------|--------------|
D|------------------|--------------|
A|-1/-6-6---6-6-6---|-6-6-6---6-6\-| x2
E|------------------|--------------|
B|------------------|--------------|

G|---------------|-----------------|---------------|-------------|
D|---------------|-----------------|---------------|-------------|
A|-3-3---3-3-3---|-3-3-3---3-3--1--|-3-3---3-3-3---|-3-3-3---3-3-|
E|---------------|-----------------|---------------|-------------|
B|---------------|-----------------|---------------|-------------|

G|------------------|--------------|
D|------------------|--------------|
A|-1/-6-6---6-6-6---|-6-6-6---6-6\-| x2
E|------------------|--------------|
B|------------------|--------------|

G|---------------|-------------------|
D|---------------|-------------------|
A|-3-3---3-3-3---|-3-3-3---3-3--3--1-|
E|---------------|-------------------|
B|---------------|-------------------|
🎸 Chorus 1: (0:37-1:05)
G|-----------------|-----------------|-----------------|----------------|
D|-----------------|-----------------|-----------------|----------------|
A|-----------------|-----------------|-----------------|----------------|
E|-4-4-4-4-4-4-4-4-|-----------------|-6-6-6-6-6-6-6-6-|-8-8-8-8-8-8--6-|
B|-----------------|-4-4-4-4-4-4-4-4-|-----------------|----------------|

G|-----------------|-----------------|-----------------|---------------|
D|-----------------|-----------------|-----------------|---------------|
A|-----------------|-----------------|-----------------|---------------|
E|-4-4-4-4-4-4-4-4-|-----------------|-6-6-6-6-6-6-6-6-|-8--10--11--13-|
B|-----------------|-4-4-4-4-4-4-4-4-|-----------------|---------------|

G|-----------------|-----------------|-----------------|---------------|
D|-6-6-6-6-6-6-6-6-|-----------------|-----------------|---------------|
A|-----------------|-6-6-6-6-6-6-6-6-|-----------------|---------------|
E|-----------------|-----------------|-6-6-6-6-6-6-6-6-|-8--10--11--13-|
B|-----------------|-----------------|-----------------|---------------|

G|-----------------|-----------------|------------------|----------------------|
D|-6-6-6-6-6-6-6-6-|-----------------|------------------|----------------------|
A|-----------------|-6-6-6-6-6-6-6-6-|------------------|-13-13-13-13-13-13-13-|
E|-----------------|-----------------|-6-6-6-6-6-6-6-6/-|----------------------|
B|-----------------|-----------------|------------------|----------------------|


🎸 Post-Chorus 1: (1:06-1:08)
G|---------------|--------------|
D|---------------|--------------|
A|-6-6---6-6-6---|-6-6-6---6-6\-|
E|---------------|--------------|
B|---------------|--------------|


🎸 Verse 2: (1:09-1:35)
G|------------------|--------------|
D|------------------|--------------|
A|-1/-6-6---6-6-6---|-6-6-6---6-6\-| x2
E|------------------|--------------|
B|------------------|--------------|

G|---------------|-----------------|---------------|-------------|
D|---------------|-----------------|---------------|-------------|
A|-3-3---3-3-3---|-3-3-3---3-3--1--|-3-3---3-3-3---|-3-3-3---3-3-|
E|---------------|-----------------|---------------|-------------|
B|---------------|-----------------|---------------|-------------|

G|------------------|--------------|
D|------------------|--------------|
A|-1/-6-6---6-6-6---|-6-6-6---6-6\-| x2
E|------------------|--------------|
B|------------------|--------------|

G|---------------|-------------------|
D|---------------|-------------------|
A|-3-3---3-3-3---|-3-3-3---3-3--3--1-|
E|---------------|-------------------|
B|---------------|-------------------|


🎸 Chorus 2: (1:38-2:07)
G|-----------------|-----------------|-----------------|----------------|
D|-----------------|-----------------|-----------------|----------------|
A|-----------------|-----------------|-----------------|----------------|
E|-4-4-4-4-4-4-4-4-|-----------------|-6-6-6-6-6-6-6-6-|-8-8-8-8-8-8--6-|
B|-----------------|-4-4-4-4-4-4-4-4-|-----------------|----------------|

G|-----------------|-----------------|-----------------|---------------|
D|-----------------|-----------------|-----------------|---------------|
A|-----------------|-----------------|-----------------|---------------|
E|-4-4-4-4-4-4-4-4-|-----------------|-6-6-6-6-6-6-6-6-|-8--10--11--13-|
B|-----------------|-4-4-4-4-4-4-4-4-|-----------------|---------------|

G|-----------------|-----------------|-----------------|---------------|
D|-6-6-6-6-6-6-6-6-|-----------------|-----------------|---------------|
A|-----------------|-6-6-6-6-6-6-6-6-|-----------------|---------------|
E|-----------------|-----------------|-6-6-6-6-6-6-6-6-|-8--10--11--13-|
B|-----------------|-----------------|-----------------|---------------|

G|-----------------|-----------------|------------------|-------------|-------------|
D|-6-6-6-6-6-6-6-6-|-----------------|------------------|-------------|-------------|
A|-----------------|-6-6-6-6-6-6-6-6-|------------------|-13-13-13-13-|-13-13-13-13-|
E|-----------------|-----------------|-6-6-6-6-6-6-6-6/-|-------------|-------------|
B|-----------------|-----------------|------------------|-------------|-------------|


🎸 Bridge: (2:08-2:37)
G|-----------------|-----------------|-----------------|-----------------|
D|-----------------|-----------------|-----------------|-----------------|
A|-3-3-3-3-3-3-3-3-|-6-6-6-6-6-6-6-6-|-----------------|-----------------|
E|-----------------|-----------------|-6-6-6-6-6-6-6-6-|-4-4-4-4-4-4-4-4-|
B|-----------------|-----------------|-----------------|-----------------|

G|-----------------|-----------------|------------------|-------------|-------------|
D|-----------------|-----------------|------------------|-------------|-------------|
A|-3-3-3-3-3-3-3-3-|-6-6-6-6-6-6-6-6-|------------------|-13-13-13-13-|-13-13-13-13-|
E|-----------------|-----------------|-6-6-6-6-6-6-6-6/-|-------------|-------------|
B|-----------------|-----------------|------------------|-------------|-------------|

G|------------------|--------------|
D|------------------|--------------|
A|-1/-6-6---6-6-6---|-6-6-6---6-6\-| x3
E|------------------|--------------|
B|------------------|--------------|

G|------------------|------------------|
D|------------------|------------------|
A|-1/-6-6---6-6-6---|-6-6-6---6-6\---3-|
E|------------------|------------------|
B|------------------|------------------|


🎸 Chorus 3: (2:44-3:12)
G|-----------------|-----------------|-----------------|----------------|
D|-----------------|-----------------|-----------------|----------------|
A|-----------------|-----------------|-----------------|----------------|
E|-4-4-4-4-4-4-4-4-|-----------------|-6-6-6-6-6-6-6-6-|-8-8-8-8-8-8--6-|
B|-----------------|-4-4-4-4-4-4-4-4-|-----------------|----------------|

G|-----------------|-----------------|-----------------|---------------|
D|-----------------|-----------------|-----------------|---------------|
A|-----------------|-----------------|-----------------|---------------|
E|-4-4-4-4-4-4-4-4-|-----------------|-6-6-6-6-6-6-6-6-|-8--10--11--13-|
B|-----------------|-4-4-4-4-4-4-4-4-|-----------------|---------------|

G|-----------------|-----------------|-----------------|---------------|
D|-6-6-6-6-6-6-6-6-|-----------------|-----------------|---------------|
A|-----------------|-6-6-6-6-6-6-6-6-|-----------------|---------------|
E|-----------------|-----------------|-6-6-6-6-6-6-6-6-|-8--10--11--13-|
B|-----------------|-----------------|-----------------|---------------|

G|-----------------|-----------------|------------------|-------------|-------------|
D|-6-6-6-6-6-6-6-6-|-----------------|------------------|-------------|-------------|
A|-----------------|-6-6-6-6-6-6-6-6-|------------------|-13-13-13-13-|-13-13-13-13-|
E|-----------------|-----------------|-6-6-6-6-6-6-6-6/-|-------------|-------------|
B|-----------------|-----------------|------------------|-------------|-------------|


🎸 Outro: (3:13-3:20)
G|-----------------|-----------------|-----------------|-----------------|
D|-6-6-6-6-6-6-6-6-|-5-5-5-5-5-5-5-5-|-3-3-3-3-3-3-3-3-|-8-8-8-8-8-8-8-8-|
A|-----------------|-----------------|-----------------|-----------------|
E|-----------------|-----------------|-----------------|-----------------|
B|-----------------|-----------------|-----------------|-----------------|


************************************

| /  Slide up
| \  Slide down

************************************
ⓘ Bass guitar tab for 'Nine Lives' by R5, a pop-rock band formed in 2009 from Los Angeles, California, USA